Artists by letter: A B C D E F G H I J K L M N O P Q R S T U V W X Y Z 0-9

 
The Wolves Reprise
Hi. This song is pretty great. Weird to play at first, but it is this simple.
Strap on a capo and give it a whirl.

Tuning: Standard
Capo 7th Fret

Now since the 4 high strings stay open for the majority of this song and I happen to not have studied music,
I will refer to the chords by the main bass note that I feel is applicable. See it as guidance.


Intro/Verse:
     C/Em                           Em and so on   
E-------0---0-0-0------0---0-0-0-------0---0-0-0------0---0-0-0------0---0-0-0-------0-0------0-0-----
B-------0---0-0-0------0---0-0-0-------0---0-0-0------0---0-0-0------0---0-0-0-------0-0------0-0-----
G-------0---0-0-0------0---0-0-0-------0---0-0-0------0---0-0-0------0---0-0-0-------0-0------0-0-----
D-------0-----0--------0-----0------2--2-----2-----1--1-----1-----0--0-----0------0--0--------0-------
A----3--------------3---------------2--------------2--------------2---------------2-------0h2---------
E----0------------------------------0-----------------------------------------------------------------
     d  d   u d u   d  d   u d u    d  d   u d u   d  d   u d u   d  d   u d u    d  d u  d   d u


    C                       G and so on                      
E------0---0-0-0---------------0---0-0-0-------0---0-0-0--------0---0-0-0-------------0---0-0-0------------
B------0---0-0-0---------------0---0-0-0-------0---0-0-0--------0---0-0-0-------------0---0-0-0------------
G------0---0-0-0---------------0---0-0-0-------0---0-0-0--------0---0-0-0-------------0---0-0-0------------
D------0-----0------x4---------0-----0---------0-----0----------0-----0-----x4--------0-----0------x4------
A---3-------------------------(0)--------------2----------------3---------------------2--------------------
E---------------------------3---------------3----------------3---------------------3-----------------------


In the verse you basically play C four times and the the E progrssion as stated in the first line.


Suggestion for the lyrics:

C/Em               Em
     Wolves are waiting
C                   Em    
  Weve gone in in a pick
C/Em                 Em
     It's feathers suffer
C                 Em
  The soil of the tick
C/Em                 Em  (go down to C# right before C)
    We'll all surrender
C                 Em
  The echo of embrace
C/Em                  Em
     And how I'm sorry
C                   G   
   Give balance the break


Now at 2:13 we enter the instrumental part of the song where mostly other instruments become melodically 
dominant.
I usually follow the changes the strand-up bass is doing, which circle around Em C and G.
If you play the Intro/Verse alongside the instrumental, it sounds quite alright, just skip the last four Gs 
and go straight back to Em

Enjoy playing along.
 
 
Dustin Tebbutt - The Wolves Reprise :: indexed at Ultimate Guitar.
The Wolves Reprise tabs @ 911Tabs
People who played Dustin Tebbutt - The Wolves Reprise also played these songs by Dustin Tebbutt:
The Breach Chords, Bones Chords, The Breach Chords, First Light Chords, Plans Chords, Where I Find You Chords

Quick tip, so you can enjoy The Wolves Reprise even more:

You might want to transpose the song if it is too high or too low for you to sing. Just click the desired option while playing a song and all the chords will automatically be transponded into a new key.

Show us your talent, perform The Wolves Reprise!

Here you can post a video or audio performance. Tell me more ...
Where can we find your performance? Tell me more ...
Your comment:
Please, log in to post your performance.