Artists by letter: A B C D E F G H I J K L M N O P Q R S T U V W X Y Z 0-9

 
Heading Through The Door
Full song, not all the guitar parts. Just listen and vary the chords below.

() = played second round

Intro guit 1

E--------------------------------------------------------|
B--------------------------------------------------------|
G---4-4-4-4-4-4-4-4-4-4-4-4-4-4-4-4----------------------|
D---4-4-4-4-4-4-4-4-4-4-4-4-4-4-4-4----------------------|
A---2-2-2-2-2-2-2-2-2-2-2-2-2-2-2-2----------------------|
D--------------------------------------------------------|

Intro guit 2

E--------------------------------------------------------|
B--------------------------------------------------------|
G-------4---3-4-----------4---3-4------------------------|
D---4-4---4-----4-4---4-4---4-----4-4--------------------|
A--------------------------------------------------------|
D--------------------------------------------------------|

Verse

E--------------------------------------------------------|
B--------------------------------------------------------|
G--------6---------6---------6---------6-----------------|
D-----4----4-----2---2-----4---4-----6---6---------------|
A--------------0---------2---------4---------------------|
D---0----------------------------------------------------|

Bridge

E-------------------------------------------------------------------------------|
B-------------------------------------------------------------------------------|
G-------6-------6--------6--------6------6-6-6-6-6-6-6---4-4-4-4-4-4-4----------|
D-----4---4---4---4----4---4----4---4----4-4-4-4-4-4-4---2-2-2-2-2-2-2----------|
A----------------------------------------2-2-2-2-2-2-2---0-0-0-0-0-0-0----------|
D---0-------0--------0--------0-------------------------------------------------|

Outro

E--------------------------------------------------------|
B--------------------------------------------------------|
G------------2-------------------------------------------|
D--------0-----0--------3----------(5)-------------------|
A---1-^0---1-----1----3--------(5)-----------------------|
D-------------------3-------(5)--------------------------|
 
 
Duster - Heading Through The Door :: indexed at Ultimate Guitar.
Heading Through The Door tabs @ 911Tabs
People who played Duster - Heading Through The Door also played these songs by Duster:
Echo Bravo Tab, The Breakup Suite Tab, Shadows Of Planes Tab, Constellations Tab, Queen Of Hearts Tab, Gold Dust Tab

Quick tip, so you can enjoy Heading Through The Door even more:

You might want to transpose the song if it is too high or too low for you to sing. Just click the desired option while playing a song and all the chords will automatically be transponded into a new key.

Show us your talent, perform Heading Through The Door!

Here you can post a video or audio performance. Tell me more ...
Where can we find your performance? Tell me more ...
Your comment:
Please, log in to post your performance.