Artists by letter: A B C D E F G H I J K L M N O P Q R S T U V W X Y Z 0-9

 
Heading For The Door
[Intro]
(Guitar 1)
E|-------------------------------------------------------|
B|-------------------------------------------------------|
G|---5--5--5--5--5--5--5--5--5--5--5--5--5--5--5--5------|
D|---5--5--5--5--5--5--5--5--5--5--5--5--5--5--5--5------|
A|---3--3--3--3--3--3--3--3--3--3--3--3--3--3--3--3------|
D|-------------------------------------------------------|

(Guitar 2)
E|-------------------------------------------------------|
B|-------------------------------------------------------|
G|-------5---4---5---------5---4---5---------------------|
D|---5-5---5---5---5---5-5---5---5---5-------------------|
A|-------------------------------------------------------|
D|-------------------------------------------------------|

[Verse]
E|-------------------------------------------------------|
B|-------------------------------------------------------|
G|-------------------------------------------------------|
D|-------11-------11-------11----------11----------------|
A|-----9----9---7----7---9----11----11----11-------------|
D|---0--------7--------9---------11----------------------|

[Bridge]
(Guitar 1)
E|-------------------------------------------------------|
B|-------------------------------------------------------|
G|-------------------------------------------------------|
D|---11-11-11-11-11-11-11-11-11-11-11-11-11-11-11-11-----|
A|---9--9--9--9--9--9--9--9--9--9--9--9--9--9--9--0------|
D|---0--0--0--0--0--0--0--0--0--0--0--0--0--0--0--0------|

E|-------------------------------------------------------|
B|-------------------------------------------------------|
G|-------------------------------------------------------|
D|---11-11-11-11-11-11-11-9~----9--9--9--9--9--9--9------|
A|---9--9--9--9--9--9--9--7~----7--7--7--7--7--7--7------|
D|---9--9--9--9--9--9--9--7~----7--7--7--7--7--7--7------|

(Guitar 2) 
E|-------------------------------------------------------|
B|-------------------------------------------------------|
G|-------6-------6-------6-------6-----------------------|
D|-----4---4---4---4---4---4---4---4---------------------|
A|-------------------------------------------------------|
D|---0-------0-------0-------0---------------------------|

E|-------------------------------------------------------|
B|-------------------------------------------------------|
G|------6--6--6--6--6-----4~----4--4--4--4--4--4--4------|
D|------4--4--4--4--4-----2~----2--2--2--2--2--2--2------|
A|---2---------------------------------------------------|
D|-------------------------------------------------------|

E|-------------------------------------------------------|
B|-------------------------------------------------------|
G|-------7~--6~----6~6~--6~--4~--------------------------|
D|-----4---------------------4~--------------------------|
A|-------------------------------------------------------|
D|-------------------------------------------------------|

E|-------------------------------------------------------|
B|-------------------------------------------------------|
G|---6--6--6--6--6--6-----4~----4--4--4--4--4--4--4------|
D|---4--4--4--4--4--4-----2~----2--2--2--2--2--2--2------|
A|-------------------------------------------------------|
D|-------------------------------------------------------|

E|-------------------------------------------------------|
B|-------------------------------------------------------|
G|-------6-------6----6--6--6--6--6--6--6--6-------------|
D|-----4---4---4---4--4--4--4--4--4--4--4--4-------------|
A|-------------------------------------------------------|
D|---0-------0-------------------------------------------|

E|-------------------------------------------------------|
B|-------------------------------------------------------|
G|---6--6--6--6--6--6-----4~----2--2--2--2--2--2--2------|
D|---4--4--4--4--4--4-----2~----2--2--2--2--2--2--2------|
A|-------------------------------------------------------|
D|-------------------------------------------------------|

E|-------------------------------------------------------|
B|-------------------------------------------------------|
G|-------6----6--6--6--4--6--6--4--6--6--6--6------------|
D|-----4---4--4--4--4--4--4--4--4--4--4--4--4------------|
A|-------------------------------------------------------|
D|---0---------------------------------------------------|

E|-------------------------------------------------------|
B|-------------------------------------------------------|
G|---6--6--6--6--6--6-----4~----4--4~--------------------|
D|---4--4--4--4--4--4-----2~----2--2~--------------------|
A|-------------------------------------------------------|
D|-------------------------------------------------------|

[Outro]
E|-------------------------------------------------------|
B|-------------------------------------------------------|
G|-------------------------------------------------------|
D|-------0---7-0-------3~---------7---8-7-------3~/---5~-|
A|-----0---0-----0---3~-----0---0---0-----0---3~-/--5~---|
D|---8-------------3~---------8-------------3~--/-5~-----|


************************************

| ~  Vibrato
| /  Slide up

| () = played third round

************************************
 
 
Duster - Heading For The Door :: indexed at Ultimate Guitar.
Heading For The Door tabs @ 911Tabs
People who played Duster - Heading For The Door also played these songs by Duster:
Echo Bravo Tab, The Breakup Suite Tab, Shadows Of Planes Tab, Constellations Tab, Queen Of Hearts Tab, Gold Dust Tab

Quick tip, so you can enjoy Heading For The Door even more:

After the registration (which takes just 10 seconds, remember?) you will be able to use your profile - your very own piece of YourChords.com.

Show us your talent, perform Heading For The Door!

Here you can post a video or audio performance. Tell me more ...
Where can we find your performance? Tell me more ...
Your comment:
Please, log in to post your performance.