Artists by letter: A B C D E F G H I J K L M N O P Q R S T U V W X Y Z 0-9

 
Mi Caballo Y Mi Mujer
hola a todos los visitanmte de la 

Esta cancion es una petición, y  al ver que no estaba aquí, decidi
subirla...

Duo auyacucho de Perú con la canción
 "Mi caballo"

Versión: ?Original?
Transcribe: José Manuel
Nivel: Facil

Empezemos...

INTRO:
1.|-------------------------------------------------------------0-|
2.|-----------------------------------------------------------1---|
3.|---------------------------------------------------------2-----|
4.|---0h2---0h2---0h2------------0h2---0h2---0h2----------2-------|
5.|-3-----3-----3-----3-0-3.---3-----3-----3-----3-2.---0---------|
6.|---------------------------------------------------------------|

1.|-------------------------------------------------------|
2.|-------------------------------------------------------|
3.|-------------------------------------------------------|
4.|---0h2---0h2----0h2------------0h2---0h2---0h2---------|
5.|-3-----3------3-----3-0-3.---3-----3-----3-----3-2-0.--|
6.|-------------------------------------------------------|

1.|-------------|
2.|-------------|
3.|-------------|
4.|-------------|
 
 
Duo Ayacucho - Mi Caballo Y Mi Mujer :: indexed at Ultimate Guitar.
Mi Caballo Y Mi Mujer tabs @ 911Tabs
People who played Duo Ayacucho - Mi Caballo Y Mi Mujer also played these songs by Duo Ayacucho:
Mi Caballo Y Mi Mujer Tab, Paloma Torcaza Chords, Olivo Verde Chords, Memorias Chords, Pasajero En Tu Camino Tab, El Adios Tab

Quick tip, so you can enjoy Mi Caballo Y Mi Mujer even more:

YourChords.com Guitar Chords and Tabs Archive is currently indexing over 240'000 songs from 21'000+ different artists. And new chords just keep on coming in, so you will surely never run out of them.

Show us your talent, perform Mi Caballo Y Mi Mujer!

Here you can post a video or audio performance. Tell me more ...
Where can we find your performance? Tell me more ...
Your comment:
Please, log in to post your performance.