Artists by letter: A B C D E F G H I J K L M N O P Q R S T U V W X Y Z 0-9

 
Going To The Run Tab
Intro
E |---------|-----------------|-----------------|-----------------|--------|
B |---------|---------0-------|-------1---------|---------0-------|--------|
G |---------|-------0-----0---|-----0---0---0---|-------0---0-----|--------|
D |-------0-|-----2-----2---2-|---2-------2---2-|-----0-------0---|--------|
A |---02---|---2-------------|-3---------------|---2-----------2-|--------|
E |-3-------|-0---------------|-----------------|-3---------------|-3------|

E |---------|-----------------|-----------------|-----------------|--3-----|
B |---------|---------0-------|-------1---------|---------0-------|--------|
G |---------|-------0-----0---|-----0---0---0---|-------0---0-----|--------|
D |-------0-|-----2-----2---2-|---2-------2---2-|-----0-------0---|--------|
A |---02---|---2-------------|-3---------------|---2-----------2-|--------|
E |-3-------|-0---------------|-----------------|-3---------------|--------|

Verse
I could bet on New Years eve he'd call me up at night.
From the other side of the world Ed was always there allright.
Ed's got the looks of a moviestar. Ed's got the smile of a prince
He rides a bike instead of a car. I wanna be his friend.
Dancing in the livingroom with the ladies so nice.
Like a child with the wisdom true, he's just a friend of mine.
Ed's got the rings and the colours. Ed's got the wind in his hair
He goes riding with the brothers. He's got a fist in the air.

Chorus
Going to the run, run, angel.
Going to the run, run, angel.
And heaven and hell came together that night only for you this time.
Going to run, forever, Angel

Instrumental
E |------------|--------------|--------------|----------|
B |------------|--------------|--3--3----5---|--5---3---|
G |-4-5-4-5----|--7-----------|--------------|----------|
D |------------|--------------|--3--3----5---|--5---8---|
A |-4-5-4-5----|--7-----------|--------------|----------|
E |------------|--------------|--------------|----------|

Verse
One summer at the festival holding on real tight.
On the back of a Harley he took me for a ride in the sky.
Ed's got the looks of a moviestar. Ed's got the smile of a prince
He rides a bike instead of a car. I'll always be his friend.

Chorus
Going to the run, run, angel.
Going to the run, run, angel.
And his wings started to shine so bright, like a fire in the night.
Going to run, forever, Angel
Going to the run, run, angel.
Going to the run, run, angel.
And heaven and hell came together that night only for you this time.
Going to run, forever, Angel
Going to run, forever, Angel

 
 
Golden Earring - Going To The Run Tab :: indexed at Ultimate Guitar.
Going To The Run tabs @ 911Tabs
People who played Golden Earring - Going To The Run Tab also played these songs by Golden Earring:
When The Lady Smiles Tab, Twilight Zone Chords, Twilight Zone Chords, Radar Love Tab, Radar Love Tab, Ive Just Last Somebody Chords

About the artist behind Going To The Run Tab:

Golden Earring is a Dutch rock band, founded in 1961 in The Hague as the Golden Earrings (the 's' was dropped in 1969). They had international chart success with the songs Eight Miles High in 1969, Radar Love in 1973, Twilight Zone in 1982, and When The Lady Smiles in 1984. In their home country, they had over 40 hits and made over 30 gold and platinum albums. Current members of Golden Earring are Barry Hay (vocals, guitar, flute and saxophone, member since 1968), George Kooymans (vocals and guitar, founder of band), Rinus Gerritsen (bass and keyboard, founding member), and Cesar Zuiderwijk (drums and percussion, member since 1970). Golden Earring have sold millions of albums worldwide, and are perhaps the oldest rock band in the world that is still performing. March 13th and 14th 2009 Golden Earring celebrates its comeback in the UK with concerts in London and Ipswich after the upcoming release of their latest studio-album.

Indexed at Wikipedia.

Show us your talent, perform Going To The Run Tab!

Here you can post a video or audio performance. Tell me more ...
Where can we find your performance? Tell me more ...
Your comment:
Please, log in to post your performance.