Artists by letter: A B C D E F G H I J K L M N O P Q R S T U V W X Y Z 0-9

 
The Thought Of Losing You
Band: Dredg
Album: Chuckles and Mr. Squeezy
Song: The Thought of Losing You
Tuning: Standard

==============================================================================

Notes:
+ Tuning: I saw Dredg live a few times about 2 years ago and noticed that
  Mark plays this song with a capo near the third fret. I'm sure this is
  an easier song to play with that capo, but I did it without a capo.
+ Chorus: the chorus is still a little off, but closer than my original tab.
+ Bridge: the tabbed notes are actually strummed and picked. Listen for the
  count and timing.

==============================================================================

Intro
Lead x2
E|---------------------------------------------------------------|
B|-----------------------------------------------------6-6-6-6-8-|
G|-------7-7-7-7-5-5-5-5-3-3-3-32-------7-7-7-7-5-5-5-5----------|
D|-/5-5-5-------------------------/5-5-5-------------------------|
A|---------------------------------------------------------------|
E|---------------------------------------------------------------|

Rhythm (bass arranged for guitar, strummed)
E|--------------------------------------------------------------|
B|--------------------------------------------------------------|
G|--------------------------------------------------------------|
D|-5----/12----10-----8-----7-----5----/12----10-----15----17---|
A|-x------x-----x-----x-----x-----x------x-----x------x-----x---|
E|-3----/10-----8-----6-----5-----3----/10-----8-----13----15---|

Rhythm Guitar 2
E|---------------------|-----------------------------|
B|---------------------|-----------------------------|
G|---------------------|-----------------------------|
D|----777--------------|----777--------101010/121212-|
A|-55-555-101010-888/7-|-55-555-101010-8-8-8-/101010-|
E|-33-----8-8-8--666/5-|-33-----8-8-8----------------|

Verse 1
“Today, today is a new day . . .”
E|------------------------------------------------------------|
B|------------------------------------------------------------|
G|------------------------------------------------------------|
D|------guitar rests or play the rhythm from the Intro--------|
A|------------------------------------------------------------|
E|------------------------------------------------------------|

“Tomorrow, tomorrow is a new way . . .”
Lead
E|---------------------------------------------------------------|
B|-----------------------------------------------------6-6-6-6-8-|
G|-------7-7-7-7-5-5-5-5-3-3-3-32-------7-7-7-7-5-5-5-5----------|
D|-/5-5-5-------------------------/5-5-5-------------------------|
A|---------------------------------------------------------------|
E|---------------------------------------------------------------|

Chorus
Lead
E|------------------------------------------------------|
B|--------------------------------------------/666666-3-|
G|--------------------------------77777-55555-----------|
D|--------88888-7777-5555-3-55555-----------------------|
A|-/66666-----------------------------------------------|
E|------------------------------------------------------|

Bridge (only the chords are given. Not tabbed for duration or pick action)
“After all this pain . . .”
E|----------------------------------------------------|
B|-11-----10-----10----8-----11------10------6------8-|
G|-12-----10-----7-----8-----12------10------7------8-|
D|-12-----10-----8-----8-----12------10------8------8-|
A|----------------------------------------------------|
E|----------------------------------------------------|

Verse 2
Lead x3
E|---------------------------------------------------------------|
B|-----------------------------------------------------6-6-6-6-8-|
G|-------7-7-7-7-5-5-5-5-3-3-3-32-------7-7-7-7-5-5-5-5----------|
D|-/5-5-5-------------------------/5-5-5-------------------------|
A|---------------------------------------------------------------|
E|---------------------------------------------------------------|

Chorus
Lead
E|------------------------------------------------------|
B|--------------------------------------------/666666-3-|
G|--------------------------------77777-55555-----------|
D|--------88888-7777-5555-3-55555-----------------------|
A|-/66666-----------------------------------------------|
E|------------------------------------------------------|

Bridge
“After all this pain . . .”
E|----------------------------------------------------|
B|-11-----10-----10----8-----11------10------6------8-|
G|-12-----10-----7-----8-----12------10------7------8-|
D|-12-----10-----8-----8-----12------10------8------8-|
A|----------------------------------------------------|
E|----------------------------------------------------|

Break
Lead 
First Section x2, then second section
E|------------------------|-----------------------------------|
B|--8----10----8----10----|-8-----10------11------11------10--|
G|-----10----10---10------|----10-10---10-12---10-10---10-10--|
D|--------------------10--|-----------------------------------|
A|------------------------|-----------------------------------|
E|------------------------|-----------------------------------|

Post Break 
Rhythm Guitar
E|---------------------|-----------------------------|
B|---------------------|-----------------------------|
G|---------------------|-----------------------------|
D|----777--------------|----777--------101010/121212-|
A|-55-555-101010-888/7-|-55-555-101010-8-8-8-/101010-|
E|-33-----8-8-8--666/5-|-33-----8-8-8----------------|

Chorus
Lead
E|------------------------------------------------------|
B|--------------------------------------------/666666-3-|
G|--------------------------------77777-55555-----------|
D|--------88888-7777-5555-3-55555-----------------------|
A|-/66666-----------------------------------------------|
E|------------------------------------------------------|

Bridge
“After all this pain . . .”
E|----------------------------------------------------|
B|-11-----10-----10----8-----11------10------6------8-|
G|-12-----10-----7-----8-----12------10------7------8-|
D|-12-----10-----8-----8-----12------10------8------8-|
A|----------------------------------------------------|
E|----------------------------------------------------|

Outro
Lead x2
E|--------------------------------|
B|--------------------------------|
G|-------7-7-7-7-5-5-5-5-3-3-3-32-|
D|-/5-5-5-------------------------|
A|--------------------------------|
E|--------------------------------|

 
 
Dredg - The Thought Of Losing You :: indexed at Ultimate Guitar.
The Thought Of Losing You tabs @ 911Tabs

Quick tip, so you can enjoy The Thought Of Losing You even more:

After the registration (which takes just 10 seconds, remember?) you will be able to use your profile - your very own piece of YourChords.com.

Show us your talent, perform The Thought Of Losing You!

Here you can post a video or audio performance. Tell me more ...
Where can we find your performance? Tell me more ...
Your comment:
Please, log in to post your performance.