Artists by letter: A B C D E F G H I J K L M N O P Q R S T U V W X Y Z 0-9

 
Through My Words Acoustic
[Intro]
e|------3---2-----|------3---2-----|------3---2-----|------3---2-----|
B|--------------3-|--------------3-|--------------3-|--------------3-|
G|----------------|--0-------------|----------------|--0-------------|
D|----------------|----------------|----------------|----------------|
A|----------------|----------------|----------------|----------------|
E|3---3-----------|3---------------|3---3-----------|3---------------|

[Verse]
e|------3---2-----|------3---2-----|------3---2-----|------3---2-----|
B|--------------3-|--------------3-|--------------3-|--------------3-|
G|----------------|--0-------------|----------------|--0-------------|
D|----------------|----------------|----------------|----------------|
A|----------------|----------------|2---2-----------|2---------------|
E|3---3-----------|3---------------|----------------|----------------|

e|------3---2-----|------3---2-----|------3---2---0-|------3---3---3-|
B|--------------3-|--------------3-|----------------|------3---1---0-|
G|----------------|--0-------------|----------------|----------------|
D|----------------|----------------|----------------|----------------|
A|----------------|----------------|3---3-----------|--3-------------|
E|0---0-----------|0---------------|----------------|----------------|

e|------3---2-----|------3---2-----|5-----5---5---5-|------10--12--7-|
B|--------------3-|--------------3-|5-----3---5---7-|------7---8---8-|
G|----------------|--0-------------|----------------|--7-------------|
D|----------------|----------------|----------------|----------------|
A|----------------|----------------|----------------|----------------|
E|3---3-----------|3---------------|----------------|----------------|

e|------3---2---0-|------3---3-----|3-----3---3---3-|--3---------0---|
B|----------------|--0---3---5-----|3-----3---1---0-|--3-----3---0---|
G|----------------|----------------|----------------|--2-----2-0-----|
D|----------------|----------------|----------------|----------------|
A|----------------|--------------3-|----3-----------|----------------|
E|0---------------|----------------|----------------|----------------|

[Chorus]
e|------0---0---2-|--3---5---7---5-|----------2---5-|--10--12--10--7-|
B|------0---0---5-|--5---7---8---7-|----3-5---3---5-|--7---8---7---3-|
G|------0-------4-|--4-------------|------2---------|----------------|
D|----------------|----------------|0---------------|----------------|
A|----------------|----------------|----------------|----------------|
E|0---------------|----------------|----------------|----------------|

[Outro]
e|------3---2-----|------3---2-----|------3---2-----|------3---------|
B|--------------3-|--------------3-|--------------3-|----------0-----|
G|----------------|--0-------------|----------------|--0---2-----0---|
D|----------------|----------------|----------------|--------------4-|
A|----------------|----------------|----------------|----------------|
E|3---3-----------|----------------|3---3-----------|3---------------|

[Ending] 
Em
 
 
Dream Theater - Through My Words Acoustic :: indexed at Ultimate Guitar.
Through My Words Acoustic tabs @ 911Tabs

Quick tip, so you can enjoy Through My Words Acoustic even more:

After the registration (which takes just 10 seconds, remember?) you will be able to use your profile - your very own piece of YourChords.com.

Show us your talent, perform Through My Words Acoustic!

Here you can post a video or audio performance. Tell me more ...
Where can we find your performance? Tell me more ...
Your comment:
Please, log in to post your performance.