Artists by letter: A B C D E F G H I J K L M N O P Q R S T U V W X Y Z 0-9

 
The Count Of Tuscany
The Count Of Tuscany
Dream Theater

Guitar 1 - Petrucci

Here it is! the complete tab!

E        E  Q    E  E  E  E  Q    E  E   
E||------------------------------------------|
B||--------------0----------------0----------|
G||-------------------3----------------3-----|
D||-----------4----------4-----4----------4--|
A||------------------------------------------|
E||--4----------------------4----------------|

E  E  Q    E  E  E  E  Q    E  E     E  E  Q    E  E  E  E  Q    E  E   
------------------------------------|------------------------------------|
--------0----------------0----------|--------0----------------0----------|
-------------3----------------3-----|-------------3----------------3-----|
-----4----------4-----4----------4--|-----4----------4-----4----------4--|
--2----------------2----------------|------------------------------------|
------------------------------------|--2----------------2----------------|

E  E  Q    E  E  E  E  Q    E  E     E  E  Q    E  E  E  E  Q    E  E   
------------------------------------|------------------------------------|
--------0----------------0----------|--------0----------------0----------|
-------------3----------------3-----|-------------3----------------3-----|
-----4----------4-----4----------4--|-----4----------4-----4----------4--|
------------------------------------|------------------------------------|
--0----------------0----------------|--4----------------4----------------|

E  E  Q    E  E  E  E  E  E  E  E     E  E  Q    E  E  E  E  E  E  E  E   
----------------------------0--------|-------------------------------------|
--------2----------------4--------4--|--------0----------------0--------0--|
-------------------------------4-----|-------------3-----------------------|
-----4-------4--------4--------------|-----4----------4-----4--------4-----|
--1-------------1--2-----------------|-------------------------------------|
-------------------------------------|--0----------------0--------2--------|

E  E  Q    E  E  E  E  E  E  E  E     E  E  Q    E  E  E  E  Q    E  E   
-------------------------------------|------------------------------------|
--------0----------------0--------0--|--------0----------------0----------|
-------------3-----------------------|-------------3----------------3-----|
-----4----------4-----4--------4-----|-----4----------4-----4----------4--|
-------------------------------------|------------------------------------|
--0----------------0--------2--------|--4----------------4----------------|

E  E  Q    E  E  E  E  Q    E  E     E  E  Q    E  E  E  E  Q    E  E   
------------------------------------|------------------------------------|
--------0----------------0----------|--------0----------------0----------|
-------------3----------------3-----|-------------3----------------3-----|
-----4----------4-----4----------4--|-----4----------4-----4----------4--|
--2----------------2----------------|------------------------------------|
------------------------------------|--2----------------2----------------|

E  E  Q    E  E  E  E  Q    E  E     E  E  Q    E  E  E  E  Q    E  E   
------------------------------------|------------------------------------|
--------0----------------0----------|--------0----------------0----------|
-------------3----------------3-----|-------------3----------------3-----|
-----4----------4-----4----------4--|-----4----------4-----4----------4--|
------------------------------------|------------------------------------|
--0----------------0----------------|--4----------------4----------------|

E  E  Q    E  E  E  E  E  E  E  E     E  E  Q    E  E  E  E  E  E  E  E   
----------------------------0--------|-------------------------------------|
--------2----------------4--------4--|--------0----------------0--------0--|
-------------------------------4-----|-------------3-----------------------|
-----4-------4--------4--------------|-----4----------4-----4--------4-----|
--1-------------1--2-----------------|-------------------------------------|
-------------------------------------|--0----------------0--------2--------|

E  E  Q    E  E  E  E  E  E  Q             
-------------------------------0----|-------|
--------0-------------------0-------|-------|
-------------3-----------3----------|-------|
-----4----------4-----4-------------|-------|
------------------------------------|-------|
--0----------------0----------------|-------|

NH                 NH                     
  E.     E.  E  E  E  E.    E.  E  E  E  E  E  E   
------12----------------5---------------------|
------12---------0------5---------0--------0--|
----------------3------------------3--------3-----|
-------------4------------------4--------6--------|
--------------------------------------------------|
--0-------------------0---------------------------|

NH                 NH                              
  E.     E.  E  E  E  E.    E.  E  E  E  E  E  E  E  E  E   
------12----------------5------------------------0-----|
------12---------0------5---------0--------0--------0--|
----------------3------------------3--------3-----3--------|
-------------4------------------4--------6-----------------|
-----------------------------------------------------------|
--0-------------------0------------------------------------|

NH                 NH                     
  E.     E.  E  E  E  E.    E.  E  E  E  E  E  E   
------12----------------5---------------------|
------12---------0------5---------0--------0--|
----------------3------------------3--------3-----|
-------------4------------------4--------6--------|
--------------------------------------------------|
--0-------------------0---------------------------|

NH                 NH                              
  E.     E.  E  E  E  E.    E.  E  E  E  E  E  E  E  E  E   
------12----------------5------------------------0-----|
------12---------0------5---------0--------0--------0--|
----------------3------------------3--------3-----3--------|
-------------4------------------4--------6-----------------|
-----------------------------------------------------------|
--0-------------------0------------------------------------|

NH                 NH                     
  E.    E.  E  E  E  E.    E.  E  E  E  E  E  E   
-------------------------------------------------|
------0---------0------0---------0--------0--|
---------------3------------------3--------3-----|
------------4------------------4--------6--------|
-------------------------------------------------|
--0------------------0---------------------------|

E.  E.  E  E  E  E.  E.  E  E  E  E  E  E  E  E  E   
------------------------------------------------0-----|
------0---------0------0---------0--------0--------0--|
-------------3----------------3--------3-----3--------|
----------4----------------4--------6-----------------|
------------------------------------------------------|
--0----------------0----------------------------------|

E.  E.  E    E   E  E.  E.  E    E   E  E  E  E   
---------------------------------------------------|
------9---L\--11----------9---L\--11------9--9-----|
------9---L\--11--11------9---L\--11--11--9-----9--|
------9---L\--11----------9---L\--11------9--------|
---------------------------------------------------|
--0-------------------0----------------------------|

E.  E.  E    E   E  E.  E.  E    E   E  E  E  E   E   E   E   
---------------------------------------------------------------|
------9---L\--11----------9---L\--11------9--9-----12--12------|
------9---L\--11--11------9---L\--11--11--9-----9--11------11--|
------9---L\--11----------9---L\--11------9--------11----------|
---------------------------------------------------------------|
--0-------------------0----------------------------------------|

NH                 NH                     
  E.    E.  E  E  E  E.    E.  E  E  E  E  E  E   
-------------------------------------------------|
------0---------0------0---------0--------0--|
---------------3------------------3--------3-----|
------------4------------------4--------6--------|
-------------------------------------------------|
--0------------------0---------------------------|

E.  E.  E  E  E  E.  E.  E  E  E  E  E  E  E  E  E   
------------------------------------------------------|
------0---------0------0---------0--------0--------0--|
-------------3----------------3--------3--------3-----|
----------4----------------4--------6--------8--------|
------------------------------------------------------|
--0----------------0----------------------------------|

NH                 NH                     
  E.    E.  E  E  E  E.    E.  E  E  E  E  E  E   
-------------------------------------------------|
------0---------0------0---------0--------0--|
---------------3------------------3--------3-----|
------------4------------------4--------6--------|
-------------------------------------------------|
--0------------------0---------------------------|

E.  E.  E  E  E  E.  E.  E  E  E  E  E  E  E  E  E   
------------------------------------------------------|
------0---------0------0---------0--------0--------0--|
-------------3----------------3--------3--------3-----|
----------4----------------4--------6--------8--------|
------------------------------------------------------|
--0----------------0----------------------------------|

E.  E.  E  E  E  Q.     Q.     E  E  E   
------------------------------------------|
------------------------------------------|
------------------------------------------|
-------------4--3----------------1--3--4--|
--2-------4--------2------4---------------|
------2-----------------------------------|

E.  E.  E  E  E  E  E  E  E.  E.  Q.      
-------------------------------------------|
-------------------------------------------|
----------------------4--3--1--------------|
-------------4--3-------------------1------|
--2-------4--------2------------4----------|
------2------------------------------------|

E.  E.  E  E  E  Q.     Q.     E  E  E   
------------------------------------------|
------------------------------------------|
------------------------------------------|
-------------4--3----------------1--3--4--|
--2-------4--------2------4---------------|
------2-----------------------------------|

E.  E.  E  E  E  E  E  E  E.  E.  Q.      
-------------------------------------------|
-------------------------------------------|
----------------------4--3--1--------------|
-------------4--3-------------------1------|
--2-------4--------2------------4----------|
------2------------------------------------|

|-3-| |3|        
  S S T T S S S S S Q    S S T T S S S S  S E.  S S S S E   E.   
----7-6-4---4-6-4----------7-6-4---4-6-4-11-9---7-6-7-9---------|
----------7-------5--------------7----------------------7~--L---|
--------------------4----L--------------------------------------|
----------------------------------------------------------------|
----------------------------------------------------------------|
----------------------------------------------------------------|

S S T T S S S S S Q    S S T T S S S S  S S  S  E   T  T  T  T S  E.   S  S  Q
----7-6-4---4-6-4----------7-6-4---4-6-4-11-9-11-12--11-12-14-------------------
----------7-------5--------------7----------------------------12-L-11---11-12---
--------------------4----L----------------------------------------------------11
--------------------------------------------------------------------------------
--------------------------------------------------------------------------------
--------------------------------------------------------------------------------

|--3--|  |--3--|  |--3--|  |--3--|  |--3--|  |--3--|  |--3--|  |--3--|  |--3-
   S  S  S  S  S  S  S  S  S  S  S  S  S  S  S  S  S  S  S  S  S  S  S  S  S  S 
--------------------------------------------------------------------------------
--------------------------------------------------------------------------------
-----------------------------------------------------------------13----------13-
--------------------------------------------13-14-13----13-14-16----16-14-16----
-----------13----------13-14-16-14-13-14-16----------13-------------------------
--12-14-16----16-14-16----------------------------------------------------------

|--3--|  |--3--|  |--3--|  |--3--|  |--3--|  |--3--|  |--3--|  |--3--|  |--3-
   S  S  S  S  S  S  S  S  S  S  S  S  S  S  S  S  S  S  S  S  S  S  S  S  S  S 
-----------------------------------------------------------------16----------16-
--------------------------------------------16-17-16----16-17-19----17-19-17----
-----------15----------15-16-18-16-15-16-18----------18-------------------------
--14-16-18----18-16-18----------------------------------------------------------
--------------------------------------------------------------------------------
--------------------------------------------------------------------------------

E  E  Q    E  E  E  E  Q    E  E     E  E  Q    E  E  E  E  Q    E  E   
------------------------------------|------------------------------------|
--------0----------------0----------|--------0----------------0----------|
-------------3----------------3-----|-------------3----------------3-----|
-----4----------4-----4----------4--|-----4----------4-----4----------4--|
------------------------------------|--2----------------2----------------|
--4----------------4----------------|------------------------------------|

E  E  Q    E  E  E  E  Q    E  E     E  E  Q    E  E  E  E  Q    E  E   
------------------------------------|------------------------------------|
--------0----------------0----------|--------0----------------0----------|
-------------3----------------3-----|-------------3----------------3-----|
-----4----------4-----4----------4--|-----4----------4-----4----------4--|
------------------------------------|------------------------------------|
--2----------------2----------------|--0----------------0----------------|

E  E  Q    E  E  E  E  Q    E  E     E  E  Q    E  E  E  E  E  E  E  E   
------------------------------------|----------------------------0--------|
--------0----------------0----------|--------2----------------4--------4--|
-------------3----------------3-----|-------------------------------4-----|
-----4----------4-----4----------4--|-----4-------4--------4--------------|
------------------------------------|--1-------------1--2-----------------|
--4----------------4----------------|-------------------------------------|

E  E  Q    E  E  E  E  E  E  E  E     E  E  Q    E  E  E  E  E  E  E  E   
-------------------------------------|-------------------------------------|
--------0----------------0--------0--|--------0----------------0--------0--|
-------------3-----------------------|-------------3-----------------------|
-----4----------4-----4--------4-----|-----4----------4-----4--------4-----|
-------------------------------------|-------------------------------------|
--0----------------0--------2--------|--0----------------0--------2--------|

Lead                                                       
  S    S S S S S  S S S S S S S S S S  S S  S  S  S  S S  S  
--7--------9-----10-----9-----7---9---10---12----10----9----|
-------8-----8------8-----8-----8---8----8----10----10---10-|
---------7-----7------7-----7-------------------------------|
------------------------------------------------------------|
------------------------------------------------------------|
------------------------------------------------------------|

S S S S S S  S S S S S S S S S  S S  S  S  S  S  S S  S  
--7-----9-----10-----9-----7---9-10---14-12----10----9----|
----8-----8------8-----8-----8------8-------10----10---10-|
------7-----7------7-----7--------------------------------|
----------------------------------------------------------|
----------------------------------------------------------|
----------------------------------------------------------|

S  S  S  S  S  S  S  S  S  S  S  S  S  S  S  S  S  S  S  S  S  S  S  S  
--10-------12-------13-------12-------10----12----13----15----13----12----|
-----11-------11-------11-------11-------11----11----11----13----13----13-|
--------10-------10-------10-------10-------------------------------------|
--------------------------------------------------------------------------|
--------------------------------------------------------------------------|
--------------------------------------------------------------------------|

S  S  S  S  S  S  S  S  S  S  S  S  S  S  S  S  S  S  S  S  S  S  S  S  
--10-------12-------13-------12-------10----15-17----18-20----18-17-15----|
-----11-------11-------11-------11-------11-------------------------------|
--------10-------10-------10-------10-------------15-------17----------17-|
--------------------------------------------------------------------------|
--------------------------------------------------------------------------|
--------------------------------------------------------------------------|

S  S  S  S  S  S  S  S  S  S  S  S  S S  S  S  S  S  S S  S S  S  S  S S S S 
--------------------------------------------------------------------------------
--18-16-15----------------------------------------------------------------------
--------------------------------------------------------------------------------
-----------15-13-12-15-13-12----------12-9--------------------------------------
-------------------------------------------11-10-11-13-10-8---------------------
-----------------------------13-11-10-----------------------10-9-10-12-10-8-7-3-

Q    E  Q    Q    Q    E     Q    E  Q    Q    E   
----------------------------|-----------------------|
----------------------------|-----------------------|
--5-------5----5----5-------|--5-------5----5-------|
--5-------5----5----5-------|--5-------5----5-------|
--3-------3----3----3-------|--3-------3----3-------|
----------------------------|-----------------------|

Q    E  Q    Q    Q    E     Q    E  Q    Q    E   
----------------------------|-----------------------|
----------------------------|-----------------------|
--5-------5----5----5-------|--5-------5----5-------|
--5-------5----5----5-------|--5-------5----5-------|
--3-------3----3----3-------|--3-------3----3-------|
----------------------------|-----------------------|

Q    E  Q    Q    Q    E     Q    E  Q    Q    E   
----------------------------|-----------------------|
----------------------------|-----------------------|
--5-------5----5----5-------|--5-------5----5-------|
--5-------5----5----5-------|--5-------5----5-------|
--3-------3----3----3-------|--3-------3----3-------|
----------------------------|-----------------------|

Q    E  Q    Q    Q    E     Q    E  Q    Q    E   
----------------------------|-----------------------|
----------------------------|-----------------------|
--5-------5----5----5-------|--5-------5----5-------|
--5-------5----5----5-------|--5-------5----5-------|
--3-------3----3----3-------|--3-------3----3-------|
----------------------------|-----------------------|

PM PM    PM    PM    PM PM       PM PM    PM    PM PM  
  E  E  E  E  E  E  E  E  E  E     E  E  E  E  E  E  E  E   
--------------------------------|--------------------------|
--------------------------------|--------------------------|
--5--------5-----5-----5--------|--5--------5-----5--------|
--5--------5-----5-----5--------|--5--------5-----5--------|
--3--3--3--3--3--3--3--3--3--3--|--3--3--3--3--3--3--3--3--|
--------------------------------|--------------------------|

PM PM    PM    PM    PM PM       PM PM    PM    PM PM  
  E  E  E  E  E  E  E  E  E  E     E  E  E  E  E  E  E  E   
--------------------------------|--------------------------|
--------------------------------|--------------------------|
--5--------5-----5-----5--------|--5--------5-----5--------|
--5--------5-----5-----5--------|--5--------5-----5--------|
--3--3--3--3--3--3--3--3--3--3--|--3--3--3--3--3--3--3--3--|
--------------------------------|--------------------------|

PM PM    PM    PM    PM PM       PM PM    PM    PM PM  
  E  E  E  E  E  E  E  E  E  E     E  E  E  E  E  E  E  E   
--------------------------------|--------------------------|
--------------------------------|--------------------------|
--5--------5-----5-----5--------|--5--------5-----5--------|
--5--------5-----5-----5--------|--5--------5-----5--------|
--3--3--3--3--3--3--3--3--3--3--|--3--3--3--3--3--3--3--3--|
--------------------------------|--------------------------|

PM PM    PM    PM    PM PM       PM PM    PM    PM PM  
  E  E  E  E  E  E  E  E  E  E     E  E  E  E  E  E  E  E   
--------------------------------|--------------------------|
--------------------------------|--------------------------|
--5--------5-----5-----5--------|--5--------5-----5--------|
--5--------5-----5-----5--------|--5--------5-----5--------|
--3--3--3--3--3--3--3--3--3--3--|--3--3--3--3--3--3--3--3--|
--------------------------------|--------------------------|

E  E  E  E  E  E  E  E  E  E     E  E  E  E  E  E  E  E   
--------------------------------|--------------------------|
--------------------------------|--------------------------|
--------------------4--7--5-----|--------------------------|
--------5--4--7--6-----------5--|--8--7--4--6--3--5--------|
--3--6--------------------------|--------------------6--5--|
--------------------------------|--------------------------|

E  E  E  E  E  E  E  E  E  E     E  E  E  E  E  E  E  E   
--------------------------------|--------------------------|
--------------------------------|--------------------------|
--------------------4--7--5-----|--------------------------|
--------5--4--7--6-----------5--|--8--7--4--6--3--5--------|
--3--6--------------------------|--------------------6--5--|
--------------------------------|--------------------------|

E  E  E  E  E  E  E  E  E  E     E  E  E  E  E  E  E  E   
--------------------------------|--------------------------|
--------------------------------|--------------------------|
--------------------4--7--5-----|--------------------------|
--------5--4--7--6-----------5--|--8--7--4--6--3--5--------|
--3--6--------------------------|--------------------6--5--|
--------------------------------|--------------------------|

E  E  E  E  E  E  E  E  E  E     E  E  E  E  E  E  E  E     Q    H         
--------------------------------|--------------------------|----------------|
--------------------------------|--------------------------|----------------|
--------------------4--7--5-----|--------------------------|----------------|
--------5--4--7--6-----------5--|--8--7--4--6--3--5--------|----------------|
--3--6--------------------------|--------------------6--5--|--3-------------|
--------------------------------|--------------------------|----------------|

PM PM PM    PM    PM    PM PM PM       PM PM    PM    PM PM PM  
  E  S  S  E  E  E  E  E  E  S  S  E     E  E  E  E  E  E  S  S  E   
--------------------------------------|-----------------------------|
--------------------------------------|-----------------------------|
--------------------------------------|-----------------------------|
--9-----------9-----9-----9-----------|--9--------9-----9-----------|
--7-----------7-----7-----7-----------|--7--------7-----7-----------|
-----0--0--0-----0-----0-----0--0--0--|-----0--0-----0-----0--0--0--|

PM PM PM     PM     PM     PM PM PM        PM PM     PM     PM PM PM  
   E  S  S  E   E  E   E  E   E  S  S  E      E  E  E   E  E   E  S  S  E   
------------------------------------------|--------------------------------|
------------------------------------------|--------------------------------|
------------------------------------------|--------------------------------|
--10-----------10-----10-----10-----------|--10--------10-----10-----------|
---7------------7------7------7-----------|---7---------7------7-----------|
------0--0--0------0------0------0--0--0--|------0--0------0------0--0--0--|

PM PM PM    PM    PM    PM PM PM       PM PM    PM    PM PM PM  
  E  S  S  E  E  E  E  E  E  S  S  E     E  E  E  E  E  E  S  S  E   
--------------------------------------|-----------------------------|
--------------------------------------|-----------------------------|
--------------------------------------|-----------------------------|
--6-----------6-----6-----6-----------|--6--------6-----6-----------|
--7-----------7-----7-----7-----------|--7--------7-----7-----------|
-----0--0--0-----0-----0-----0--0--0--|-----0--0-----0-----0--0--0--|

PM PM PM    PM    PM PM PM       PM PM    PM    PM PM PM  
  E  S  S  E  E  E  E  S  S  E     E  E  E  E  E  E  S  S  E   
--------------------------------|-----------------------------|
--------------------------------|-----------------------------|
--------------------------------|-----------------------------|
--8-----------8-----8-----------|--7--------7-----7-----------|
--7-----------7-----7-----------|--7--------7-----7-----------|
-----0--0--0-----0-----0--0--0--|-----0--0-----0-----0--0--0--|

PM PM PM    PM    PM    PM PM PM       PM PM    PM    PM PM PM  
  E  S  S  E  E  E  E  E  E  S  S  E     E  E  E  E  E  E  S  S  E   
--------------------------------------|-----------------------------|
--------------------------------------|-----------------------------|
--------------------------------------|-----------------------------|
--9-----------9-----9-----9-----------|--9--------9-----9-----------|
--7-----------7-----7-----7-----------|--7--------7-----7-----------|
-----0--0--0-----0-----0-----0--0--0--|-----0--0-----0-----0--0--0--|

PM PM PM     PM     PM     PM PM PM        PM PM     PM     PM PM PM  
   E  S  S  E   E  E   E  E   E  S  S  E      E  E  E   E  E   E  S  S  E   
------------------------------------------|--------------------------------|
------------------------------------------|--------------------------------|
------------------------------------------|--------------------------------|
--12-----------12-----12-----12-----------|--12--------12-----12-----------|
---7------------7------7------7-----------|---7---------7------7-----------|
------0--0--0------0------0------0--0--0--|------0--0------0------0--0--0--|

PM PM PM     PM     PM     PM PM PM        PM PM     PM     PM PM PM  
   E  S  S  E   E  E   E  E   E  S  S  E      E  E  E   E  E   E  S  S  E   
------------------------------------------|--------------------------------|
------------------------------------------|--------------------------------|
------------------------------------------|--------------------------------|
--11-----------11-----11-----11-----------|--11--------11-----11-----------|
---7------------7------7------7-----------|---7---------7------7-----------|
------0--0--0------0------0------0--0--0--|------0--0------0------0--0--0--|

PM PM PM     PM     PM PM PM        PM PM     PM     PM PM PM  
   E  S  S  E   E  E   E  S  S  E      E  E  E   E  E   E  S  S  E   
-----------------------------------|--------------------------------|
-----------------------------------|--------------------------------|
-----------------------------------|--------------------------------|
--10-----------10-----10-----------|--10--------10-----10-----------|
---7------------7------7-----------|---8---------8------8-----------|
------0--0--0------0------0--0--0--|------0--0------0------0--0--0--|

PM PM PM PM    PM             PM PM PM PM    PM        
  E  S  S  E  E  E  E  E  E     E  S  S  E  E  E  E  E  E   
-----------------------------|-----------------------------|
-----------------------------|-----------------------------|
-----------------------------|-----------------------------|
--4--------------3-----------|-----------------------------|
--2--------------1-----4--5--|--7--------------4-----4--5--|
-----0--0--0--0-----0--2--3--|--5--0--0--0--0--2--0--2--3--|

PM PM PM    PM PM PM              PM PM PM    PM    PM    PM PM PM  
  E  S  S  E  E  S  S  E  E   E     E  S  S  E  E  E  E  E  E  S  S  E   
---------------------------------|--------------------------------------|
---------------------------------|--------------------------------------|
---------------------------------|--------------------------------------|
---------------------------------|--9-----------9-----9-----9-----------|
--2-----------2-----------9--10--|--7-----------7-----7-----7-----------|
--0--0--0--0--0--0--0--0--7---8--|-----0--0--0-----0-----0-----0--0--0--|

PM PM    PM    PM PM PM        PM PM PM     PM     PM     PM PM PM  
  E  E  E  E  E  E  S  S  E      E  S  S  E   E  E   E  E   E  S  S  E   
-----------------------------|------------------------------------------|
-----------------------------|------------------------------------------|
-----------------------------|------------------------------------------|
--9--------9-----9-----------|--10-----------10-----10-----10-----------|
--7--------7-----7-----------|---7------------7------7------7-----------|
-----0--0-----0-----0--0--0--|------0--0--0------0------0------0--0--0--|

PM PM     PM     PM PM PM       PM PM PM    PM    PM    PM PM PM  
   E  E  E   E  E   E  S  S  E     E  S  S  E  E  E  E  E  E  S  S  E   
--------------------------------|--------------------------------------|
--------------------------------|--------------------------------------|
--------------------------------|--------------------------------------|
--10--------10-----10-----------|--6-----------6-----6-----6-----------|
---7---------7------7-----------|--7-----------7-----7-----7-----------|
------0--0------0------0--0--0--|-----0--0--0-----0-----0-----0--0--0--|

PM PM    PM    PM PM PM       PM PM PM    PM    PM PM PM  
  E  E  E  E  E  E  S  S  E     E  S  S  E  E  E  E  S  S  E   
-----------------------------|--------------------------------|
-----------------------------|--------------------------------|
-----------------------------|--------------------------------|
--6--------6-----6-----------|--8-----------8-----8-----------|
--7--------7-----7-----------|--7-----------7-----7-----------|
-----0--0-----0-----0--0--0--|-----0--0--0-----0-----0--0--0--|

PM PM    PM    PM PM PM       PM PM PM    PM    PM    PM PM PM  
  E  E  E  E  E  E  S  S  E     E  S  S  E  E  E  E  E  E  S  S  E   
-----------------------------|--------------------------------------|
-----------------------------|--------------------------------------|
-----------------------------|--------------------------------------|
--7--------7-----7-----------|--9-----------9-----9-----9-----------|
--7--------7-----7-----------|--7-----------7-----7-----7-----------|
-----0--0-----0-----0--0--0--|-----0--0--0-----0-----0-----0--0--0--|

PM PM    PM    PM PM PM        PM PM PM     PM     PM     PM PM PM  
  E  E  E  E  E  E  S  S  E      E  S  S  E   E  E   E  E   E  S  S  E   
-----------------------------|------------------------------------------|
-----------------------------|------------------------------------------|
-----------------------------|------------------------------------------|
--9--------9-----9-----------|--12-----------12-----12-----12-----------|
--7--------7-----7-----------|---7------------7------7------7-----------|
-----0--0-----0-----0--0--0--|------0--0--0------0------0------0--0--0--|

PM PM     PM     PM PM PM        PM PM PM     PM     PM     PM PM PM  
   E  E  E   E  E   E  S  S  E      E  S  S  E   E  E   E  E   E  S  S  E   
--------------------------------|------------------------------------------|
--------------------------------|------------------------------------------|
--------------------------------|------------------------------------------|
--12--------12-----12-----------|--11-----------11-----11-----11-----------|
---7---------7------7-----------|---7------------7------7------7-----------|
------0--0------0------0--0--0--|------0--0--0------0------0------0--0--0--|

PM PM     PM     PM PM PM        PM PM PM     PM     PM PM PM  
   E  E  E   E  E   E  S  S  E      E  S  S  E   E  E   E  S  S  E   
--------------------------------|-----------------------------------|
--------------------------------|-----------------------------------|
--------------------------------|-----------------------------------|
--11--------11-----11-----------|--10-----------10-----10-----------|
---7---------7------7-----------|---7------------7------7-----------|
------0--0------0------0--0--0--|------0--0--0------0------0--0--0--|

PM PM     PM     PM PM PM    PM PM PM               
   E  E  E   E  E   E  S  S  E     E  E  E  Q.     E  E   
--------------------------------|------------------------|
--------------------------------|------------------------|
--------------------------------|------------------------|
--10--------10-----10-----------|-----------4------------|
---8---------8------8-----------|-----------2------------|
------0--0------0------0--0--0--|--0--2--3---------3--2--|

PM PM PM PM PM PM PM PM PM PM PM    PM PM                  
  S  S  E  E  E  S  S  E  S  S  E     E  E  E  Q.     E  E   
-----------------------------------|------------------------|
-----------------------------------|------------------------|
-----------------------------------|------------------------|
-----------------------------------|-----------5------------|
-----------------------------------|-----------3------------|
--0--0--0--0--0--0--0--0--0--0--0--|--0--2--3---------3--2--|

PM PM PM PM PM PM PM PM PM PM PM       PM PM               
  S  S  E  E  E  S  S  E  S  S  E     E  E  E  Q.     E  E   
-----------------------------------|------------------------|
-----------------------------------|------------------------|
-----------------------------------|------------------------|
-----------------------------------|-----------9------------|
-----------------------------------|-----------7------------|
--0--0--0--0--0--0--0--0--0--0--0--|--0--2--3---------3--2--|

PM PM PM PM PM PM PM PM PM PM PM    PM PM PM               
  S  S  E  E  E  S  S  E  S  S  E     E  E  E  Q.     E  E   
-----------------------------------|------------------------|
-----------------------------------|------------------------|
-----------------------------------|------------------------|
-----------------------------------|-----------3------------|
-----------------------------------|-----------1------------|
--0--0--0--0--0--0--0--0--0--0--0--|--0--2--3---------3--2--|

PM PM PM                 PM PM PM               
  E  E  E  Q.     E  E     E  E  E  Q.     E  E   
------------------------|------------------------|
------------------------|------------------------|
------------------------|------------------------|
-----------2------------|-----------4------------|
-----------0------------|-----------2------------|
--0--2--3---------3--2--|--0--2--3---------3--2--|

PM PM PM PM PM PM PM PM PM PM PM    PM PM PM               
  S  S  E  E  E  S  S  E  S  S  E     E  E  E  Q.     E  E   
-----------------------------------|------------------------|
-----------------------------------|------------------------|
-----------------------------------|------------------------|
-----------------------------------|-----------7------------|
-----------------------------------|-----------5------------|
--0--0--0--0--0--0--0--0--0--0--0--|--0--2--3---------3--2--|

PM PM PM PM PM PM PM PM PM PM PM    PM PM PM               
  S  S  E  E  E  S  S  E  S  S  E     E  E  E  Q.     E  E   
-----------------------------------|------------------------|
-----------------------------------|------------------------|
-----------------------------------|------------------------|
-----------------------------------|-----------7------------|
-----------------------------------|-----------4------------|
--0--0--0--0--0--0--0--0--0--0--0--|--0--2--3---------3--2--|

PM PM PM PM PM PM PM PM PM PM PM    PM PM PM               
  S  S  E  E  E  S  S  E  S  S  E     E  E  E  Q.     E  E   
-----------------------------------|------------------------|
-----------------------------------|------------------------|
-----------------------------------|------------------------|
-----------------------------------|-----------5------------|
-----------------------------------|-----------3------------|
--0--0--0--0--0--0--0--0--0--0--0--|--0--2--3---------3--2--|

PM PM PM                    PM PM PM PM    PM        
  E  E  E  Q.     E  E     E  S  S  E  E  E  E  E  E   
------------------------|-----------------------------|
------------------------|-----------------------------|
------------------------|-----------------------------|
-----------3------------|--4--------------3-----------|
-----------1------------|--2--------------1-----4--5--|
--0--2--3---------3--2--|-----0--0--0--0-----0--2--3--|

PM PM PM PM    PM             PM   PM    PM PM PM         
  E  S  S  E  E  E  E  E  E     E  S  S E  E  S  S  E  E   E   
-----------------------------|--------------------------------|
-----------------------------|--------------------------------|
-----------------------------|--------------------------------|
-----------------------------|--------------------------------|
--7--------------4-----4--5--|--2----------2-----------9--10--|
--5--0--0--0--0--2--0--2--3--|--0--0--0-0--0--0--0--0--7---8--|

PM PM PM    PM    PM    PM PM PM       PM PM    PM    PM PM PM  
  E  S  S  E  E  E  E  E  E  S  S  E     E  E  E  E  E  E  S  S  E   
--------------------------------------|-----------------------------|
--------------------------------------|-----------------------------|
--------------------------------------|-----------------------------|
--9-----------9-----9-----9-----------|--9--------9-----9-----------|
--7-----------7-----7-----7-----------|--7--------7-----7-----------|
-----0--0--0-----0-----0-----0--0--0--|-----0--0-----0-----0--0--0--|

PM PM PM     PM     PM     PM PM PM        PM PM     PM     PM PM PM  
   E  S  S  E   E  E   E  E   E  S  S  E      E  E  E   E  E   E  S  S  E   
------------------------------------------|--------------------------------|
------------------------------------------|--------------------------------|
------------------------------------------|--------------------------------|
--10-----------10-----10-----10-----------|--10--------10-----10-----------|
---7------------7------7------7-----------|---7---------7------7-----------|
------0--0--0------0------0------0--0--0--|------0--0------0------0--0--0--|

PM PM PM    PM    PM    PM PM PM       PM PM    PM    PM PM PM  
  E  S  S  E  E  E  E  E  E  S  S  E     E  E  E  E  E  E  S  S  E   
--------------------------------------|-----------------------------|
--------------------------------------|-----------------------------|
--------------------------------------|-----------------------------|
--6-----------6-----6-----6-----------|--6--------6-----6-----------|
--7-----------7-----7-----7-----------|--7--------7-----7-----------|
-----0--0--0-----0-----0-----0--0--0--|-----0--0-----0-----0--0--0--|

PM PM PM    PM    PM PM PM       PM PM    PM    PM PM PM  
  E  S  S  E  E  E  E  S  S  E     E  E  E  E  E  E  S  S  E   
--------------------------------|-----------------------------|
--------------------------------|-----------------------------|
--------------------------------|-----------------------------|
--8-----------8-----8-----------|--7--------7-----7-----------|
--7-----------7-----7-----------|--7--------7-----7-----------|
-----0--0--0-----0-----0--0--0--|-----0--0-----0-----0--0--0--|

PM PM PM    PM    PM    PM PM PM       PM PM    PM    PM PM PM  
  E  S  S  E  E  E  E  E  E  S  S  E     E  E  E  E  E  E  S  S  E   
--------------------------------------|-----------------------------|
--------------------------------------|-----------------------------|
--------------------------------------|-----------------------------|
--9-----------9-----9-----9-----------|--9--------9-----9-----------|
--7-----------7-----7-----7-----------|--7--------7-----7-----------|
-----0--0--0-----0-----0-----0--0--0--|-----0--0-----0-----0--0--0--|

PM PM PM     PM     PM     PM PM PM        PM PM     PM     PM PM PM  
   E  S  S  E   E  E   E  E   E  S  S  E      E  E  E   E  E   E  S  S  E   
------------------------------------------|--------------------------------|
------------------------------------------|--------------------------------|
------------------------------------------|--------------------------------|
--12-----------12-----12-----12-----------|--12--------12-----12-----------|
---7------------7------7------7-----------|---7---------7------7-----------|
------0--0--0------0------0------0--0--0--|------0--0------0------0--0--0--|

PM PM PM     PM     PM     PM PM PM        PM PM     PM     PM PM PM  
   E  S  S  E   E  E   E  E   E  S  S  E      E  E  E   E  E   E  S  S  E   
------------------------------------------|--------------------------------|
------------------------------------------|--------------------------------|
------------------------------------------|--------------------------------|
--11-----------11-----11-----11-----------|--11--------11-----11-----------|
---7------------7------7------7-----------|---7---------7------7-----------|
------0--0--0------0------0------0--0--0--|------0--0------0------0--0--0--|

PM PM PM     PM     PM PM PM        PM PM     PM     PM PM PM  
   E  S  S  E   E  E   E  S  S  E      E  E  E   E  E   E  S  S  E   
-----------------------------------|--------------------------------|
-----------------------------------|--------------------------------|
-----------------------------------|--------------------------------|
--10-----------10-----10-----------|--10--------10-----10-----------|
---7------------7------7-----------|---8---------8------8-----------|
------0--0--0------0------0--0--0--|------0--0------0------0--0--0--|

PM PM PM                                      
  E  E  E  Q    Q    E     E  E  E  E  E  E  Q       E  E  E  Q    Q    E   
------------------------|-------------------------|------------------------|
------------------------|-------------------------|------------------------|
------------------------|-------------------------|------------------------|
---------------------7--|--L-----------7--8--8----|------------------------|
----------------4----5--|--L--5--5--5--5--6--6----|----------------6----5--|
--3--6--3--5------------|-------------------------|--3--6--3--5------------|

PM      PM PM                                     PM PM PM             
  E  E  Q    E  E  Q       E  E  E  Q    Q    E     E  E  E  E  E  E  Q     
------------------------|------------------------|-------------------------|
------------------------|------------------------|-------------------------|
------------------------|------------------------|-------------------------|
------------------------|---------------------7--|--L-----------7--6--3----|
--L-----6----------6----|----------------4----5--|--L--5--5--5--5--4--1----|
-----4--4----4--4--4----|--3--6--3--5------------|-------------------------|

PM                                   
  E  E  E  Q    Q    E     E  E  Q    E  E  Q       E  E  E  Q    Q    E   
------------------------|------------------------|------------------------|
------------------------|------------------------|------------------------|
------------------------|------------------------|------------------------|
----------------5----4--|--L---------------------|---------------------7--|
------------------------|-----6--5-------7--6----|----------------4----5--|
--3--6--3--5------------|-------------3--5--4----|--3--6--3--5------------|

PM PM PM                                           PM      PM PM       
  E  E  E  E  E  E  Q       E  E  E  Q    Q    E     E  E  Q    E  E  Q     
-------------------------|------------------------|------------------------|
-------------------------|------------------------|------------------------|
-------------------------|------------------------|------------------------|
--L-----------7--8--8----|------------------------|------------------------|
--L--5--5--5--5--6--6----|----------------6----5--|--L-----6----------6----|
-------------------------|--3--6--3--5------------|-----4--4----4--4--4----|

PM PM PM                                      
  E  E  E  Q    Q    E     E  E  E  E  E  E  Q       E  E  E  Q    Q    E   
------------------------|-------------------------|------------------------|
------------------------|-------------------------|------------------------|
------------------------|-------------------------|------------------------|
---------------------7--|--L-----------7--6--3----|----------------5----4--|
----------------4----5--|--L--5--5--5--5--4--1----|------------------------|
--3--6--3--5------------|-------------------------|--3--6--3--5------------|

PM                                                       
  E  E  Q    E  E  Q       Q    E  Q    E  E  E     W                 
------------------------|------------------------|-------------------|
------------------------|------------------------|-------------------|
------------------------|------------------------|-------------------|
--L---------------------|---------------------5--|--L----------------|
-----6--5-------7--6----|--5-------5-------5--3--|--L----------------|
-------------3--5--4----|--3-------3-------3--3--|--L----------------|

H        Q.     E     W                   H        Q.     E   
---------------------|-------------------|---------------------|
---------------------|-------------------|---------------------|
---------------------|-------------------|---------------------|
--L--------L------8--|--L----------------|--L--------L------6--|
--L--------L------6--|--L----------------|--L--------L------6--|
--L--------L------6--|--L----------------|--L--------L------4--|

W                   H        Q.     E     W                 
-------------------|---------------------|-------------------|
-------------------|------------------1--|--L----------------|
-------------------|------------------0--|--L----------------|
--L----------------|--L--------L------3--|--L----------------|
--L----------------|--L--------L------3--|--L----------------|
--L----------------|--L--------L------1--|--L----------------|

H        E  Q    E     W                   H        Q.     E   
----------------------|-------------------|---------------------|
--L--------L----------|-------------------|---------------------|
--L--------L----------|-------------------|---------------------|
--L--------L--3----5--|--L----------------|--L--------L------8--|
--L--------L--3----3--|--L----------------|--L--------L------6--|
--L--------L--1----3--|--L----------------|--L--------L------6--|

W                   H        Q.     E     W                 
-------------------|---------------------|-------------------|
-------------------|---------------------|-------------------|
-------------------|---------------------|-------------------|
--L----------------|--L--------L------6--|--L----------------|
--L----------------|--L--------L------6--|--L----------------|
--L----------------|--L--------L------4--|--L----------------|

H        Q.     E     Q    Q.     Q.         H        Q    E  E   
---------------------|---------------------|-----------------------|
---------------------|---------------------|-----------------------|
---------------------|---------------------|-----------------------|
--L--------L---------|---------------------|--------------------5--|
--L--------L---------|---------------------|--/6--------1----2--3--|
--L--------L------5--|--L----2------1------|--------------------3--|

W                   H        Q.     E     W                 
-------------------|---------------------|-------------------|
-------------------|---------------------|-------------------|
-------------------|---------------------|-------------------|
--L----------------|--L--------L------8--|--L----------------|
--L----------------|--L--------L------6--|--L----------------|
--L----------------|--L--------L------6--|--L----------------|

H        Q.     E     W                   H        Q.     E   
---------------------|-------------------|---------------------|
---------------------|-------------------|------------------1--|
---------------------|-------------------|------------------0--|
--L--------L------6--|--L----------------|--L--------L------3--|
--L--------L------6--|--L----------------|--L--------L------3--|
--L--------L------4--|--L----------------|--L--------L------1--|

W                   H        E  Q    E     W                 
-------------------|----------------------|-------------------|
--L----------------|--L--------L----------|-------------------|
--L----------------|--L--------L----------|-------------------|
--L----------------|--L--------L--3----5--|--L----------------|
--L----------------|--L--------L--3----3--|--L----------------|
--L----------------|--L--------L--1----3--|--L----------------|

H        Q.     E     W                   H        Q.     E   
---------------------|-------------------|---------------------|
---------------------|-------------------|---------------------|
---------------------|-------------------|---------------------|
--L--------L------8--|--L----------------|--L--------L------6--|
--L--------L------6--|--L----------------|--L--------L------6--|
--L--------L------6--|--L----------------|--L--------L------4--|

W                   H        Q.     E     Q    Q    Q    Q     
-------------------|---------------------|----------------------|
-------------------|---------------------|----------------------|
-------------------|---------------------|----------------------|
--L----------------|--L--------L------7--|--L----7----7----7----|
--L----------------|--L--------L------6--|--L----6----6----6----|
--L----------------|--L--------L------5--|--L----5----5----5----|

Q    Q    Q    Q       H.           H.            
----------------------|----------------------------|
----------------------|----------------------------|
----------------------|----------------------------|
--7----7----7----7----|----------------------------|
--6----6----6----6----|--3------------6------------|
--5----5----5----5----|----------------------------|

W                H.           H           H.           H.            
-----------------------------------------|----------------------------|
-----------------------------------------|----------------------------|
-----------------------------------------|----------------------------|
-----------------------------------------|----------------------------|
--------------------------------1--------|---------------3------------|
--2----------------L---------------------|--1-------------------------|

W                Q    Q    Q    Q    Q       H.           H.            
--------------------------------------------|----------------------------|
--------------------------------------------|----------------------------|
--------------------------------------------|----------------------------|
------------------------4----4--------------|----------------------------|
----------------------------------5----4----|--3------------6------------|
--4----------------L------------------------|----------------------------|

W                H.           H           H.           H.            
-----------------------------------------|----------------------------|
-----------------------------------------|----------------------------|
-----------------------------------------|----------------------------|
--4----------------L------------8--------|----------------------------|
-----------------------------------------|--8------------3------------|
-----------------------------------------|----------------------------|

PM      PM   PM   PM       
  W                Q    Q    Q    Q    Q       Q    E  Q    Q    Q    E   
--------------------------------------------|----------------------------|
--------------------------------------------|----------------------------|
--------------------------------------------|----------------------------|
------------------------4----4--------------|----------------------------|
----------------------------------5----4----|--3-------3----3----3-------|
--4----------------L------------------------|--3-------3----3----3-------|

PM      PM   PM         PM      PM   PM   PM         PM      PM   PM       
  Q    E  Q    Q    E     Q    E  Q    Q    Q    E     Q    E  Q    Q    E   
-----------------------|----------------------------|-----------------------|
-----------------------|----------------------------|-----------------------|
-----------------------|----------------------------|-----------------------|
-----------------------|----------------------------|-----------------------|
--3-------3----3-------|--3-------3----3----3-------|--3-------3----3-------|
--3-------3----3-------|--3-------3----3----3-------|--3-------3----3-------|

PM PM    PM    PM    PM PM       PM PM    PM    PM PM  
  E  E  E  E  E  E  E  E  E  E     E  E  E  E  E  E  E  E   
--------------------------------|--------------------------|
--------------------------------|--------------------------|
--5--------5-----5-----5--------|--5--------5-----5--------|
--5--------5-----5-----5--------|--5--------5-----5--------|
--3--3--3--3--3--3--3--3--3--3--|--3--3--3--3--3--3--3--3--|
--------------------------------|--------------------------|

PM PM    PM    PM    PM PM       PM PM    PM    PM PM  
  E  E  E  E  E  E  E  E  E  E     E  E  E  E  E  E  E  E   
--------------------------------|--------------------------|
--------------------------------|--------------------------|
--5--------5-----5-----5--------|--5--------5-----5--------|
--5--------5-----5-----5--------|--5--------5-----5--------|
--3--3--3--3--3--3--3--3--3--3--|--3--3--3--3--3--3--3--3--|
--------------------------------|--------------------------|

E  E  E  E  E  E  E  E  E  E     E  E  E  E  E  E  E  E   
--------------------------------|--------------------------|
--------------------------------|--------------------------|
--------------------4--7--5-----|--------------------------|
--------5--4--7--6-----------5--|--8--7--4--6--3--5--------|
--3--6--------------------------|--------------------6--5--|
--------------------------------|--------------------------|

E  E  E  E  E  E  E  E  E  E     E  E  E  E  E  E  E  E   
--------------------------------|--------------------------|
--------------------------------|--------------------------|
--------------------4--7--5-----|--------------------------|
--------5--4--7--6-----------5--|--8--7--4--6--3--5--------|
--3--6--------------------------|--------------------6--5--|
--------------------------------|--------------------------|

PM      PM   PM   PM         PM      PM   PM       
  Q    E  Q    Q    Q    E     Q    E  Q    Q    E   
----------------------------|-----------------------|
----------------------------|-----------------------|
----------------------------|-----------------------|
----------------------------|-----------------------|
--3-------3----3----3-------|--3-------3----3-------|
--3-------3----3----3-------|--3-------3----3-------|

PM      PM   PM   PM         PM      PM   PM       
  Q    E  Q    Q    Q    E     Q    E  Q    Q    E   
----------------------------|-----------------------|
----------------------------|-----------------------|
----------------------------|-----------------------|
----------------------------|-----------------------|
--3-------3----3----3-------|--3-------3----3-------|
--3-------3----3----3-------|--3-------3----3-------|

PM      PM   PM   PM         PM      PM   PM       
  Q    E  Q    Q    Q    E     Q    E  Q    Q    E   
----------------------------|-----------------------|
----------------------------|-----------------------|
----------------------------|-----------------------|
----------------------------|-----------------------|
--2-------2----2----2-------|--2-------2----2-------|
--0-------0----0----0-------|--0-------0----0-------|

PM      PM   PM   PM         PM      PM   PM       
  Q    E  Q    Q    Q    E     Q    E  Q    Q    E   
----------------------------|-----------------------|
----------------------------|-----------------------|
----------------------------|-----------------------|
----------------------------|-----------------------|
--2-------2----2----2-------|--2-------2----2-------|
--0-------0----0----0-------|--0-------0----0-------|

PM      PM   PM   PM         PM      PM   PM         PM      PM   PM       
  Q    E  Q    Q    Q    E     Q    E  Q    Q    E     Q    E  Q    Q    E   
----------------------------|-----------------------|-----------------------|
----------------------------|-----------------------|-----------------------|
----------------------------|-----------------------|-----------------------|
----------------------------|-----------------------|-----------------------|
--2-------2----2----2-------|--2-------2----2-------|--2-------2----2-------|
--0-------0----0----0-------|--0-------0----0-------|--0-------0----0-------|

PM      PM        PM    PM      PM   PM   PM         PM      PM   PM       
  Q    E  Q    Q    E     Q    E  Q    Q    Q    E     Q    E  Q    Q    E   
-----------------------|----------------------------|-----------------------|
-----------------------|----------------------------|-----------------------|
-----------------------|----------------------------|-----------------------|
-----------------------|----------------------------|-----------------------|
--2-------2------------|--2-------2----2----2-------|--2-------2----2-------|
--0-------0---------0--|--0-------0----0----0-------|--0-------0----0-------|

PM      PM   PM   PM         PM      PM   PM       
  Q    E  Q    Q    Q    E     Q    E  Q    Q    E   
----------------------------|-----------------------|
----------------------------|-----------------------|
----------------------------|-----------------------|
----------------------------|-----------------------|
--2-------2----2----2-------|--2-------2----2-------|
--0-------0----0----0-------|--0-------0----0-------|

PM      PM   PM   PM         PM      PM   PM         PM      PM   PM       
  Q    E  Q    Q    Q    E     Q    E  Q    Q    E     Q    E  Q    Q    E   
----------------------------|-----------------------|-----------------------|
----------------------------|-----------------------|-----------------------|
----------------------------|-----------------------|-----------------------|
----------------------------|-----------------------|-----------------------|
--2-------2----2----2-------|--2-------2----2-------|--2-------2----2-------|
--0-------0----0----0-------|--0-------0----0-------|--0-------0----0-------|

PM      PM        PM       PM PM    PM    PM       PM PM PM   PM    PM PM PM  
  Q    E  Q    Q    E     E  E  E  E  E  E  E  E     E  E  S  S E  E  E  E  E   
-----------------------|--------------------------|----------------------------|
-----------------------|--------------------------|----------------------------|
-----------------------|--------------------------|----------------------------|
-----------------------|--------------------------|----------------------------|
--2-------2------------|--2--------2-----2-----2--|----------------2-----------|
--0-------0---------0--|-----0--0-----0-----0-----|--0--0--0--0-0-----0--0--0--|

PM PM    PM    PM       PM PM PM PM PM    PM PM PM  
  E  E  E  E  E  E  E  E     E  E  S  S  E  E  E  E  E   
--------------------------|-----------------------------|
--------------------------|-----------------------------|
--------------------------|-----------------------------|
--------------------------|-----------------------------|
--3--------3-----3-----3--|-----------------3-----------|
-----0--0-----0-----0-----|--0--0--0--0--0-----0--0--0--|

PM PM    PM    PM       PM PM PM PM PM    PM PM PM  
  E  E  E  E  E  E  E  E     E  E  S  S  E  E  E  E  E   
--------------------------|-----------------------------|
--------------------------|-----------------------------|
--------------------------|-----------------------------|
--------------------------|-----------------------------|
--7--------7-----7-----7--|-----------------7-----------|
-----0--0-----0-----0-----|--0--0--0--0--0-----0--0--0--|

PM PM    PM    PM PM       PM PM    PM    PM PM  
  E  E  E  E  E  E  E  E     E  E  E  E  E  E  E  E   
--------------------------|--------------------------|
--------------------------|--------------------------|
--------------------------|--------------------------|
--------------------------|--------------------------|
--1--------1-----1--------|--0--------0-----0--------|
-----0--0-----0-----0--0--|-----0--0-----0-----0--0--|

PM PM    PM    PM       PM PM PM PM PM    PM PM PM  
  E  E  E  E  E  E  E  E     E  E  S  S  E  E  E  E  E   
--------------------------|-----------------------------|
--------------------------|-----------------------------|
--------------------------|-----------------------------|
--------------------------|-----------------------------|
--2--------2-----2-----2--|-----------------2-----------|
-----0--0-----0-----0-----|--0--0--0--0--0-----0--0--0--|

PM PM    PM    PM       PM PM PM PM PM    PM PM PM  
  E  E  E  E  E  E  E  E     E  E  S  S  E  E  E  E  E   
--------------------------|-----------------------------|
--------------------------|-----------------------------|
--------------------------|-----------------------------|
--------------------------|-----------------------------|
--5--------5-----5-----5--|-----------------5-----------|
-----0--0-----0-----0-----|--0--0--0--0--0-----0--0--0--|

PM PM    PM    PM       PM PM PM PM PM    PM PM PM  
  E  E  E  E  E  E  E  E     E  E  S  S  E  E  E  E  E   
--------------------------|-----------------------------|
--------------------------|-----------------------------|
--------------------------|-----------------------------|
--------------------------|-----------------------------|
--4--------4-----4-----4--|-----------------4-----------|
-----0--0-----0-----0-----|--0--0--0--0--0-----0--0--0--|

PM PM    PM    PM PM       PM PM    PM    PM PM                           
  E  E  E  E  E  E  E  E     E  E  E  E  E  E  E  E     E  E  E  Q    Q    E   
--------------------------|--------------------------|------------------------|
--------------------------|--------------------------|------------------------|
--------------------------|--------------------------|------------------------|
--------------------------|--------------------------|---------------------7--|
--3--------3-----3--------|--3--------3-----3--------|----------------4----5--|
-----0--0-----0-----0--0--|--1--0--0--1--0--1--0--0--|--3--6--3--5------------|

PM PM PM                                           PM      PM PM       
  E  E  E  E  E  E  Q       E  E  E  Q    Q    E     E  E  Q    E  E  Q     
-------------------------|------------------------|------------------------|
-------------------------|------------------------|------------------------|
-------------------------|------------------------|------------------------|
--L-----------7--8--8----|------------------------|------------------------|
--L--5--5--5--5--6--6----|----------------6----5--|--L-----6----------6----|
-------------------------|--3--6--3--5------------|-----4--4----4--4--4----|

PM PM PM                                      
  E  E  E  Q    Q    E     E  E  E  E  E  E  Q       E  E  E  Q    Q    E   
------------------------|-------------------------|------------------------|
------------------------|-------------------------|------------------------|
------------------------|-------------------------|------------------------|
---------------------7--|--L-----------7--6--3----|----------------5----4--|
----------------4----5--|--L--5--5--5--5--4--1----|------------------------|
--3--6--3--5------------|-------------------------|--3--6--3--5------------|

PM                                        PM PM PM             
  E  E  Q    E  E  Q       E  E  E  Q    Q    E     E  E  E  E  E  E  Q     
------------------------|------------------------|-------------------------|
------------------------|------------------------|-------------------------|
------------------------|------------------------|-------------------------|
--L---------------------|---------------------7--|--L-----------7--8--8----|
-----6--5-------7--6----|----------------4----5--|--L--5--5--5--5--6--6----|
-------------3--5--4----|--3--6--3--5------------|-------------------------|

PM      PM PM                                
  E  E  E  Q    Q    E     E  E  Q    E  E  Q       E  E  E  Q    Q    E   
------------------------|------------------------|------------------------|
------------------------|------------------------|------------------------|
------------------------|------------------------|------------------------|
------------------------|------------------------|---------------------7--|
----------------6----5--|--L-----6----------6----|----------------4----5--|
--3--6--3--5------------|-----4--4----4--4--4----|--3--6--3--5------------|

PM PM PM                                                   PM          
  E  E  E  E  E  E  Q       E  E  E  Q    Q    E     E  E  Q    E  E  Q     
-------------------------|------------------------|------------------------|
-------------------------|------------------------|---------------------
 
 
Dream Theater - The Count Of Tuscany :: indexed at Ultimate Guitar.
The Count Of Tuscany tabs @ 911Tabs

Quick tip, so you can enjoy The Count Of Tuscany even more:

YourChords.com Guitar Chords and Tabs Archive is currently indexing over 240'000 songs from 21'000+ different artists. And new chords just keep on coming in, so you will surely never run out of them.

Show us your talent, perform The Count Of Tuscany!

Here you can post a video or audio performance. Tell me more ...
Where can we find your performance? Tell me more ...
Your comment:
Please, log in to post your performance.