Artists by letter: A B C D E F G H I J K L M N O P Q R S T U V W X Y Z 0-9

 
Never Enough
Band- Dream Theater
Song- Never Enough

Gtr I (D G C F A D) - 'Rhythm Left'
Gtr II (D G C F A D) - 'Rhythm Right'
Gtr III (D G C F A D) - 'Keyboard (Lead)'
Gtr IV (D G C F A D) - 'Keyboard (Piano)'
Gtr V (D G C F A D) - 'Soft Synth'

Pre-Intro
    Q=132
    N.C.(Dm)
   4/4
    Gtr III
    S  S  S S  S  S S S S  S S S S S S S   S S S S S S S S S S S S S S S S  4x
||---------------------------------------|----------------------------------||
||o--------------------------------------|---------------------------------o||
||---------------------------------------|----------------------------------||
||---------------------------------------|----------------------------------||
||o--------------------------------------|---------------------------------o||
||--0-12-10-0-10-12-0-8-0-12-7-0-5-7-0-5-|-0-7-3-0-2-3-0-2-0-3-0-5-0-7-2-3--||

Intro
    N.C.(Dm)
    Gtrs I, II, III
    S  S  S S  S  S S S S  S S S S S S S   S S S S S S S S S S S S S S S S   4x
||---------------------------------------|-----------------------------------||
||o--------------------------------------|----------------------------------o||
||---------------------------------------|-----------------------------------||
||---------------------------------------|-----------------------------------||
||o--------------------------------------|----------------------------------o||
||--0-12p10-0-10h12-0-8-0-12p7-0-5h7-0-5-|-0-7p3-0-2h3-0-2-0-3-0-5-0-7p2h3---||

Verse
  (Bbmaj7/D)      (Dm)
  Gtrs I, II
  PM------------------------------------------------------------|
  S S S S S S S S  S  S S E. S S   S S S S S S S S  S  S S E. S S
|--------------------------------|--------------------------------|
|--------------------------------|--------------------------------|
|--------------------------------|--------------------------------|
|--------------------------------|--------------------------------|
|--------------------------------|--------------------------------|
|-0-0-0-0---0-0-0-----0-0----0-0-|-0-0-0-0---0-0-0-----0-0----0-0-|
|
| Gtr IV
| H                H               H                H
|--------------------------------|-0------------------------------|
|-1----------------0-------------|-0----------------0-------------|
|-0----------------0-------------|-0----------------0-------------|
|-2---------------(2)------------|-2---------------(2)------------|
|-2---------------(2)------------|-2---------------(2)------------|
|-0---------------(0)------------|-0---------------(0)------------|

(A7sus4b9/D)    (A7sus4/D)                       (Dm)
  PM------------------------------------------------------------|
  S S S S S S S S  S  S S E. S S   S S S S S S S S  S  S S E. S S
|--------------------------------|--------------------------------|
|--------------------------------|--------------------------------|
|--------------------------------|--------------------------------|
|--------------------------------|--------------------------------|
|--------------------------------|--------------------------------|
|-0-0-0-0---0-0-0-----0-0----0-0-|-0-0-0-0---0-0-0-----0-0----0-0-|
|
| H                H               H                H
|--------------------------------|-5------------------------------|
|-1----------------5-------------|-5----------------5-------------|
|-2----------------2-------------|-2----------------0-------------|
|-2---------------(2)------------|-2---------------(2)------------|
|-2---------------(2)------------|-2---------------(2)------------|
|-0---------------(0)------------|-0---------------(0)------------|

(Gm)            (G5)
  PM------------------------------------------------------------|
  S S S S S S S S  S  S S E. S S   S S S S S S S S  S  S S E. S S
|--------------------------------|--------------------------------|
|--------------------------------|--------------------------------|
|--------------------------------|--------------------------------|
|--------------------------------|--------------------------------|
|--------------------------------|--------------------------------|
|-5-5-5-5---5-5-5-----5-5----5-5-|-5-5-5-5---5-5-5-----5-5----5-5-|
|
| H                H               H                H
|--------------------------------|-5------------------------------|
|-1----------------5-------------|-5----------------5-------------|
|-2----------------2-------------|-2----------------2-------------|
|-2---------------(2)------------|-2---------------(2)------------|
|-0---------------(0)------------|-0---------------(0)------------|
|--------------------------------|--------------------------------|

(C#°)
  PM------------------------------------------------------------|
  S S S S S S S S S S S E. S S   S S S S S S S S S S S E.     S S
|------------------------------|----------------------------------|
|------------------------------|----------------------------------|
|------------------------------|----------------------------------|
|------------------------------|----------------------------------|
|-6-6-6-6---6-6-6---6-6----6-6-|-6-6-6-6---6-6-6---6-6--------6-6-|
|------------------------------|----------------------------------|
|
| H               H              H               Q         Q
|------------------------------|-5--------------------------------|
|-----------------7------------|-7-------------------------7------|
|-8---------------8------------|-8---------------8--------(8)-----|
|-7---------------7------------|-7---------------7--------(7)-----|
|-6---------------6------------|-6---------------6--------(6)-----|
|------------------------------|----------------------------------|

(Bbmaj7/D)      (Dm)
  PM------------------------------------------------------------|
  S S S S S S S S  S  S S E. S S   S S S S S S S S  S  S S E. S S
|--------------------------------|--------------------------------|
|--------------------------------|--------------------------------|
|--------------------------------|--------------------------------|
|--------------------------------|--------------------------------|
|--------------------------------|--------------------------------|
|-0-0-0-0---0-0-0-----0-0----0-0-|-0-0-0-0---0-0-0-----0-0----0-0-|
|
| H                H               H                H
|------------------0-------------|-3----------------0-------------|
|-1----------------0-------------|-0----------------0-------------|
|-0----------------0-------------|-0----------------0-------------|
|-2---------------(2)------------|-2---------------(2)------------|
|-2---------------(2)------------|-2---------------(2)------------|
|-0---------------(0)------------|-0---------------(0)------------|

(Bb)                                                (Bb6)
   PM---------------------------------------------------------------|
   S S S S S S S S   S  S S E. S S    S S S S S S S S   S  S S E. S S
|----------------------------------|----------------------------------|
|----------------------------------|----------------------------------|
|----------------------------------|----------------------------------|
|----------------------------------|----------------------------------|
|--3-3-3-3---3-3-3------3-3----3-3-|--3-3-3-3---3-3-3------3-3----3-3-|
|----------------------------------|----------------------------------|
|
|  H                 H                H                 H
|----------------------------------|--8-------------------------------|
|--------------------8-------------|--8----------------10-------------|
|--9-----------------9-------------|--9-----------------9-------------|
|-10---------------(10)------------|-10---------------(10)------------|
|-10---------------(10)------------|-10---------------(10)------------|
|--8----------------(8)------------|--8----------------(8)------------|

(Gm)            (G5)                                        (Gm)
  PM----------------------------------------------------------------|
  S S S S S S S S  S  S S E. S S   S S S S S S S S  S  S S E.     S S
|--------------------------------|------------------------------------|
|--------------------------------|------------------------------------|
|--------------------------------|------------------------------------|
|--------------------------------|------------------------------------|
|-0-0-0-0---0-0-0-----0-0----0-0-|-0-0-0-0---0-0-0-----0-0--------0-0-|
|--------------------------------|------------------------------------|
|
| H                H               H                Q          Q
|--------------------------------|-5----------------------------------|
|-1----------------5-------------|-5----------------5---------(5)-----|
|-2----------------2-------------|-2----------------2----------5------|
|-2---------------(2)------------|-2---------------(2)--------(2)-----|
|-0---------------(0)------------|-0---------------(0)--------(0)-----|
|--------------------------------|------------------------------------|

(C#°)                           (G°/C#)          (A7b13/C#)
  PM----------------------------------------------------------|
  S S S S S S S S  S S S E. S S    S S S S S S S S S S S E. S S
|-------------------------------|-------------------------------|
|-------------------------------|-------------------------------|
|-------------------------------|-------------------------------|
|-------------------------------|-------------------------------|
|-6-6-6-6---6-6-6----6-6----6-6-|--6-6-6-6---6-6-6---6-6----6-6-|
|-------------------------------|-------------------------------|
|
| H                H               H               H
|-------------------------------|--8---------------7------------|
|-7---------------10------------|-10---------------8------------|
|-8----------------8------------|--8---------------8------------|
|-7----------------7------------|--7---------------7------------|
|-6----------------6------------|--6---------------6------------|
|-------------------------------|-------------------------------|

N.C.
   PM-----------------------------------------------
   S  S  S  S  S  S  S  S  S  S  S  E.        S  S
|--------------------------------------------------|
|--------------------------------------------------|
|--------------------------------------------------|
|--------------------------------------------------|
|--------------------------------------------------|
|--0--0--0--0-----0--0--0-----0--0------------0--0-|
|
| Gtr III
|  PM-----------------------------------------------
|  S  S  S  S  S  S  S  S  S  S  S  S   S  S  S  S
|----------------------15--------------------------|
|-------------------17----17-----------------------|
|----------------16----------16--------------------|
|----------14-17----------------17-14--------------|
|-------14-----------------------------14----------|
|-12-15-----------------------------------15-12-10-|

-----------------------------------------------|
   S  S  S  S  S  S  S  S  S  S  S  E.        S  S
|--------------------------------------------------|
|--------------------------------------------------|
|--------------------------------------------------|
|--------------------------------------------------|
|--------------------------------------------------|
|--0--0--0--0-----0--0--0-----0--0------------0--0-|
|
|-----------------------------------------------|
|  S  S  S  S  S  S  S  S  S  S  S  S   S  S  S  S
|----------------------15--------------------------|
|-------------------17----17-----------------------|
|----------------16----------16--------------------|
|----------14-17----------------17-14--------------|
|-------14-----------------------------14----------|
|-12-15-----------------------------------15-12-15-|

S  S  S  S  S  S  S  S  S  S  S  E.        S  S
|--------------------------------------------------|
|--------------------------------------------------|
|--------------------------------------------------|
|--------------------------------------------------|
|--------------------------------------------------|
|--2--2--2--2-----2--2--2-----2--2------------2--2-|
|
|  PM-----------------------------------------------
|  S  S  S  S  S  S  S  S  S  S  S  S   S  S  S  S
|-------------------------14-----------------------|
|-------------------14-17----17-14-----------------|
|----------------15----------------15--------------|
|----------14-16-----------------------16-14-------|
|----13-16-----------------------------------16-13-|
|-14-----------------------------------------------|

S  S  S  S  S  S  S  S  S  S  S  E.        S  S
|--------------------------------------------------|
|--------------------------------------------------|
|--------------------------------------------------|
|--------------------------------------------------|
|--------------------------------------------------|
|--2--2--2--2-----2--2--2-----2--2------------2--2-|
|
|-----------------------------------------------|
|  S  S  S  S  S  S  S  S  S  S  S  S   S  S  S  S
|-------------------------14-----------------------|
|-------------------14-17----17-14-----------------|
|----------------15----------------15--------------|
|----------14-16-----------------------16-14-------|
|----13-16-----------------------------------16-13-|
|-14-----------------------------------------------|

S  S  S  S  S  S  S  S  S  S  S  E.        S  S
|--------------------------------------------------|
|--------------------------------------------------|
|--------------------------------------------------|
|--------------------------------------------------|
|--0--0--0--0-----0--0--0-----0--0------------0--0-|
|--------------------------------------------------|
|
|  PM-----------------------------------------------
|  S  S  S  S  S  S  S  S  S  S  S  S   S  S  S  S
|-------------------12-17-12-----------------------|
|----------------13----------13--------------------|
|----------12-14----------------14-12--------------|
|-------14-----------------------------14----------|
|-12-15-----------------------------------15-12----|
|-----------------------------------------------15-|

S  S  S  S  S  S  S  S  S  S  S  E.        S  S
|--------------------------------------------------|
|--------------------------------------------------|
|--------------------------------------------------|
|--------------------------------------------------|
|--0--0--0--0-----0--0--0-----0--0------------0--0-|
|--------------------------------------------------|
|
|-----------------------------------------------|
|  S  S  S  S  S  S  S  S  S  S  S  S   S  S  S  S
|-------------------12-17-12-----------------------|
|----------------13----------13--------------------|
|----------12-14----------------14-12--------------|
|-------14-----------------------------14----------|
|-12-15-----------------------------------15-12----|
|-----------------------------------------------15-|

S  S  S  S  S  S  S  S  S  S  S  E.        S  S
|--------------------------------------------------|
|--------------------------------------------------|
|--------------------------------------------------|
|--------------------------------------------------|
|--2--2--2--2-----2--2--2-----2--2------------2--2-|
|--------------------------------------------------|
|
|  PM-------------------------------------------|
|  S  S  S  S  S  S  S  S  S  S  S  S   S  S  S  S
|-------------------14-19-14-----------------------|
|-------------14-16----------16-14-----------------|
|----------16----------------------16--------------|
|----13-16-----------------------------16-13-------|
|-14-----------------------------------------14-12-|
|--------------------------------------------------|

S S  S S  S S  S S  S S  S E.    S S
|----------------------------------------|
|----------------------------------------|
|----------------------------------------|
|----------------------------------------|
|--2-2--2-2----2--2-2----2--2-------2-2--|
|----------------------------------------|
|
|  E    E    E    E    E    E     Q
|----------------------------------------|
|-----------16-------------------16------|
|------16--------16--------------16------|
|-16------------------16-----------------|
|--------------------------14------------|
|----------------------------------------|

Chorus
  (Bb7)                       D5     F         E       D
  Q  Q  H      Q  H    Q      Q  E E  Q  E E    Q  E E H
|------------|-3------------|----------------|---------------|
|------------|--------------|----------------|---------------|
|-------3----|----3---------|--------12------|-11------9\----|
|----2-------|--------------|-2--x-x-----x-x-|-----x-x-------|
|-3----------|--------------|-2--x-x-10--x-x-|--9--x-x-7\----|
|------------|---------2b3--|-0--x-x-----x-x-|-----x-x-------|

(Bb7)                       D5     F         E       D
  Gtr I
  Q  Q  H      Q  H    Q      Q  E E  Q  E E    Q  E E H
|------------|-3------------|----------------|---------------|
|------------|--------------|----------------|---------------|
|-------3----|----3---------|--------12------|-11------9\----|
|----2-------|--------------|-2--x-x-----x-x-|-----x-x-------|
|-3----------|--------------|-2--x-x-10--x-x-|--9--x-x-7\----|
|------------|---------2b3--|-0--x-x-----x-x-|-----x-x-------|
|
| Gtr II
| Q  Q  H      Q  H    Q      Q  E E  Q  E E    Q  E E H
|------------|-3------------|----------------|---------------|
|------------|--------------|--------12------|-10------8\----|
|-------3----|----3---------|----------------|---------------|
|----2-------|--------------|-2--x-x--9--x-x-|--7--x-x-5\----|
|-3----------|--------------|-2--x-x-----x-x-|-----x-x-------|
|------------|---------2b3--|-0--x-x-----x-x-|-----x-x-------|

(Bb7)                     F5
  Gtrs I, II
  Q  Q  H      Q  H.        E +E  Q  Q  Q    Q  Q  Q  Q
|------------|-3----------|-3-(3)----3-----|-3-----3-----|
|------------|------------|-3-(3)-3-----3--|-3--3-----3--|
|-------3----|----3-------|-0-(0)----------|-0-----------|
|----2-------|------------|-0-(0)----------|-0-----------|
|-3----------|------------|----------------|-------------|
|------------|------------|-3-(3)----------|-3-----------|

A5                        D5            C5
         ~~~~~~~~~~~~~~
  H      H      H    H      Q.   E H      Q.   E H
|-------------|-----------|-------------|-------------|
|-------------|-----------|-------------|-------------|
|-4-----------|-----------|-9----x-9----|-7----x-7----|
|-4----/10----|-9---------|-9----x-9----|-7----x-7----|
|-2-----------|------9----|-7----x-7----|-5----x-5----|
|-------------|-----------|-------------|-------------|

(Bb7)                                       F5
                                ~~~~~~~~~
  E E E E E E Q    E +E    +E  +E    +H       Q  Q  Q  Q    Q  Q  Q  Q
|----------------|--------------------------|-3-----3-----|-3-----3-----|
|----------------|--------------------------|-3--3-----3--|-3--3-----3--|
|----------------|-3-(3)b5r(3)-(3)b5r(3)----|-0-----------|-0-----------|
|-------------2--|--------------------------|-0-----------|-0-----------|
|-3-3-3-3-3-3----|--------------------------|-------------|-------------|
|----------------|--------------------------|-3-----------|-3-----------|

C5/G        C#5/G#
  H    H      H    H
|-----------|-----------|
|-----------|-----------|
|-7----7----|-8----8----|
|-7----7----|-8----8----|
|-5----5----|-6----6----|
|-5----5----|-6----6----|

S  S  S S  S  S S S S  S S S S S S S   S S S S S S S S S S S S S S S S
||---------------------------------------|-----------------------------------||
||o--------------------------------------|----------------------------------o||
||---------------------------------------|-----------------------------------||
||---------------------------------------|-----------------------------------||
||o--------------------------------------|----------------------------------o||
||--0-12p10-0-10h12-0-8-0-12p7-0-5h7-0-5-|-0-7p3-0-2h3-0-2-0-3-0-5-0-7p2h3---||

Verse
  (Dm)
  PM---------------------------------------------------------------|
  S S S S S S S S S S S S S S S S    S S S S S S S S S S S S S S S S
|---------------------------------|----------------------------------|
|---------------------------------|----------------------------------|
|---------------------------------|----------------------------------|
|---------------------------------|-/9-9-9-9-9-9-9-9-9-9-9-9-9-9-9-9-|
|-7-7-7-7-7-7-7-7-7-7-7-7-7-7-7-7-|----------------------------------|
|---------------------------------|----------------------------------|
|
| Gtr V
| W                                  W
|---------------------------------|--0-------------------------------|
|-0-------------------------------|--0-------------------------------|
|-0-------------------------------|--0-------------------------------|
|-2-------------------------------|--2-------------------------------|
|---------------------------------|----------------------------------|
|-0-------------------------------|--0-------------------------------|

(Gm/D)
  PM-------------------------------
  S S S S S S S S S S S S S S S S
|---------------------------------|
|---------------------------------|
|---------------------------------|
|---------------------------------|
|-7-7-7-7-7-7-7-7-7-7-7-7-7-7-7-7-|
|---------------------------------|
|
| W
|---------------------------------|
|-1-------------------------------|
|-2-------------------------------|
|-2-------------------------------|
|---------------------------------|
|-0-------------------------------|

-----------------------------------------------|
    S  S  S  S  S  S  S  S  S  S  S  S  S  S  S  S
|--------------------------------------------------|
|--------------------------------------------------|
|--------------------------------------------------|
|-/10-10-10-10-10-10-10-10-10-10-10-10-10-10-10-10-|
|--------------------------------------------------|
|--------------------------------------------------|
|
|   W
|---0----------------------------------------------|
|---1----------------------------------------------|
|---2----------------------------------------------|
|---2----------------------------------------------|
|--------------------------------------------------|
|---0----------------------------------------------|

(Gm)
  PM--------------------------------------------------------------|
  S S S S S S S S S S S S S S S S   S S S S S S S S S S S S S S S S
|---------------------------------|---------------------------------|
|---------------------------------|---------------------------------|
|---------------------------------|---------------------------------|
|-7-7-7-7-7-7-7-7-7-7-7-7-7-7-7-7-|---------------------------------|
|---------------------------------|-7-7-7-7-7-7-7-7-7-7-7-7-7-7-7-7-|
|---------------------------------|---------------------------------|
|
| W                                 W
|---------------------------------|-5-------------------------------|
|-5-------------------------------|-5-------------------------------|
|-5-------------------------------|-5-------------------------------|
|-7-------------------------------|-7-------------------------------|
|-0-------------------------------|-0-------------------------------|
|---------------------------------|---------------------------------|

(C#°)
  PM-----------------------------------------------------------------------|
  S S S S S S S S   S  S  S  S  S  S  S  S   S S S S S S S S S S S S S S S S
|------------------------------------------|---------------------------------|
|------------------------------------------|---------------------------------|
|------------------------------------------|---------------------------------|
|-----------------/10-10-10-10-10-10-10-10-|-9-9-9-9-9-9-9-9-----------------|
|-6-6-6-6-6-6-6-6--------------------------|-----------------6-6-6-6-6-6-6-6-|
|------------------------------------------|---------------------------------|
|
| W                                          W
|------------------------------------------|-5-------------------------------|
|-7----------------------------------------|-7-------------------------------|
|-8----------------------------------------|-8-------------------------------|
|-7----------------------------------------|-7-------------------------------|
|-6----------------------------------------|-6-------------------------------|
|------------------------------------------|---------------------------------|

(Dm)
  S S S S S S S S S S S S S S S S    S S S S S S S S S S S S S S S S
|---------------------------------|----------------------------------|
|---------------------------------|----------------------------------|
|---------------------------------|----------------------------------|
|---------------------------------|-/9-9-9-9-9-9-9-9-9-9-9-9-9-9-9-9-|
|-7-7-7-7-7-7-7-7-7-7-7-7-7-7-7-7-|----------------------------------|
|---------------------------------|----------------------------------|
|
| W                                  W
|---------------------------------|--3-------------------------------|
|-0-------------------------------|--0-------------------------------|
|-0-------------------------------|--0-------------------------------|
|-2-------------------------------|--2-------------------------------|
|---------------------------------|----------------------------------|
|-0-------------------------------|--0-------------------------------|

(Bb)
   S S S S S S S S S S S S S S S S
|----------------------------------|
|----------------------------------|
|----------------------------------|
|----------------------------------|
|--3-3-3-3-3-3-3-3-3-3-3-3-3-3-3-3-|
|----------------------------------|
|
|  W
|----------------------------------|
|----------------------------------|
|--9-------------------------------|
|-10-------------------------------|
|-10-------------------------------|
|--8-------------------------------|

S  S  S  S  S  S  S  S  S  S  S  S  S  S  S  S
|--------------------------------------------------|
|--------------------------------------------------|
|--------------------------------------------------|
|-/10-10-10-10-10-10-10-10-10-10-10-10-10-10-10-10-|
|--------------------------------------------------|
|--------------------------------------------------|
|
|   W
|---8----------------------------------------------|
|--------------------------------------------------|
|---9----------------------------------------------|
|--10----------------------------------------------|
|--10----------------------------------------------|
|---8----------------------------------------------|

(Gm)                              (G5)
  S S S S S S S S S S S S S S S S   S S S S S S S S S S S S S S S S
|---------------------------------|---------------------------------|
|---------------------------------|---------------------------------|
|---------------------------------|---------------------------------|
|-7-7-7-7-7-7-7-7-7-7-7-7-7-7-7-7-|---------------------------------|
|---------------------------------|-7-7-7-7-7-7-7-7-7-7-7-7-7-7-9-9-|
|---------------------------------|---------------------------------|
|
| W                                 W
|---------------------------------|-5-------------------------------|
|-1-------------------------------|-5-------------------------------|
|-2-------------------------------|-2-------------------------------|
|-2-------------------------------|-2-------------------------------|
|-0-------------------------------|-0-------------------------------|
|---------------------------------|---------------------------------|

(C#°)
  S S S S S S S S   S  S  S  S  S  S  S  S   S S S S S S S S S S S S S S S S
|------------------------------------------|---------------------------------|
|------------------------------------------|---------------------------------|
|------------------------------------------|---------------------------------|
|-----------------/10-10-10-10-10-10-10-10-|-9-9-9-9-9-9-9-9-----------------|
|-6-6-6-6-6-6-6-6--------------------------|-----------------6-6-6-6-6-6-6-6-|
|------------------------------------------|---------------------------------|
|
| W                                          W
|------------------------------------------|-5-------------------------------|
|-7----------------------------------------|-7-------------------------------|
|-8----------------------------------------|-8-------------------------------|
|-7----------------------------------------|-7-------------------------------|
|-6----------------------------------------|-6-------------------------------|
|------------------------------------------|---------------------------------|

D
   S  S  S  S  S  S  S  S  S  S  S  S  S  S  S  S
|-------------------------------------------------|
|-------------------------------------------------|
|--9--9--9--9--9--9--9--9--9--9--9--9--9--9--9--9-|
|-------------------------------------------------|
|--7--7--7--7--7--7--7--7--7--7--7--7--7--7--7--7-|
|-------------------------------------------------|
|
| Gtr III
|  PM----------------------------------------------
|  S  S  S  S  S  S  S  S  S  S  S  S  S  S  S  S
|----------------------15-------------------------|
|-------------------17----17----------------------|
|----------------16----------16-------------------|
|----------14-17----------------17-14-------------|
|-------14----------------------------14----------|
|-12-15----------------------------------15-12-10-|

A
    S  S  S  S  S  S  S  S  S  S  S  S  S  S  S  S
|--------------------------------------------------|
|-/12-12-12-12-12-12-12-12-12-12-12-12-12-12-12-12-|
|--------------------------------------------------|
|--/9--9--9--9--9--9--9--9--9--9--9--9--9--9--9--9-|
|--------------------------------------------------|
|--------------------------------------------------|
|
|-----------------------------------------------|
|   S  S  S  S  S  S  S  S  S  S  S  S  S  S  S  S
|-----------------------15-------------------------|
|--------------------17----17----------------------|
|-----------------16----------16-------------------|
|-----------14-17----------------17-14-------------|
|--------14----------------------------14----------|
|--12-15----------------------------------15-12-15-|

E
   S  S  S  S  S  S  S  S  S  S  S  S  S  S  S  S
|-------------------------------------------------|
|-------------------------------------------------|
|-11-11-11-11-11-11-11-11-11-11-11-11-11-11-11-11-|
|-------------------------------------------------|
|--9--9--9--9--9--9--9--9--9--9--9--9--9--9--9--9-|
|-------------------------------------------------|
|
|  PM----------------------------------------------
|  S  S  S  S  S  S  S  S  S  S  S  S  S  S  S  S
|-------------------------14----------------------|
|-------------------14-17----17-14----------------|
|----------------15----------------15-------------|
|----------14-16----------------------16-14-------|
|----13-16----------------------------------16-13-|
|-14----------------------------------------------|

G#
    S  S  S  S  S  S  S  S  S  S  S  S  S  S  S  S
|--------------------------------------------------|
|-/11-11-11-11-11-11-11-11-11-11-11-11-11-11-11-11-|
|--------------------------------------------------|
|--/8--8--8--8--8--8--8--8--8--8--8--8--8--8--8--8-|
|--------------------------------------------------|
|--------------------------------------------------|
|
|-----------------------------------------------|
|   S  S  S  S  S  S  S  S  S  S  S  S  S  S  S  S
|--------------------------14----------------------|
|--------------------14-17----17-14----------------|
|-----------------15----------------15-------------|
|-----------14-16----------------------16-14-------|
|-----13-16----------------------------------16-13-|
|--14----------------------------------------------|

G
   S  S  S  S  S  S  S  S  S  S  S  S  S  S  S  S
|-------------------------------------------------|
|-10-10-10-10-10-10-10-10-10-10-10-10-10-10-10-10-|
|-------------------------------------------------|
|--7--7--7--7--7--7--7--7--7--7--7--7--7--7--7--7-|
|-------------------------------------------------|
|-------------------------------------------------|
|
|  PM----------------------------------------------
|  S  S  S  S  S  S  S  S  S  S  S  S  S  S  S  S
|-------------------12-17-12----------------------|
|----------------13----------13-------------------|
|----------12-14----------------14-12-------------|
|-------14----------------------------14----------|
|-12-15----------------------------------15-12----|
|----------------------------------------------15-|

Bb
    S  S  S  S  S  S  S  S  S  S  S  S  S  S  S  S
|--------------------------------------------------|
|-/13-13-13-13-13-13-13-13-13-13-13-13-13-13-13-13-|
|--------------------------------------------------|
|-/10-10-10-10-10-10-10-10-10-10-10-10-10-10-10-10-|
|--------------------------------------------------|
|--------------------------------------------------|
|
|-----------------------------------------------|
|   S  S  S  S  S  S  S  S  S  S  S  S  S  S  S  S
|--------------------12-17-12----------------------|
|-----------------13----------13-------------------|
|-----------12-14----------------14-12-------------|
|--------14----------------------------14----------|
|--12-15----------------------------------15-12----|
|-----------------------------------------------15-|

A
   S  S  S  S  S  S  S  S  S  S  S  S  S  S  S  S
|-------------------------------------------------|
|-12-12-12-12-12-12-12-12-12-12-12-12-12-12-12-12-|
|-------------------------------------------------|
|--9--9--9--9--9--9--9--9--9--9--9--9--9--9--9--9-|
|-------------------------------------------------|
|-------------------------------------------------|
|
|  PM------------------------------------------|
|  S  S  S  S  S  S  S  S  S  S  S  S  S  S  S  S
|-------------------14-19-14----------------------|
|-------------14-16----------16-14----------------|
|----------16----------------------16-------------|
|----13-16----------------------------16-13-------|
|-14----------------------------------------14-12-|
|-------------------------------------------------|

C#
    S  S  S  S  S  S  S  S  S  S  S  S  S  S  S  S
|--------------------------------------------------|
|-/16-16-16-16-16-16-16-16-16-16-16-16-16-16-16-16-|
|--------------------------------------------------|
|-/13-13-13-13-13-13-13-13-13-13-13-13-13-13-13-13-|
|--------------------------------------------------|
|--------------------------------------------------|
|
|   E     E     E     E     E     E     Q
|--------------------------------------------------|
|--------------16----------------------16----------|
|--------16----------16----------------16----------|
|--16----------------------16----------------------|
|--------------------------------14----------------|
|--------------------------------------------------|

Chorus
  (Bb7)                       D5     F         E       D
  Q  Q  H      Q  H    Q      Q  E E  Q  E E    Q  E E H
|------------|-3------------|----------------|---------------|
|------------|--------------|----------------|---------------|
|-------3----|----3---------|--------12------|-11------9\----|
|----2-------|--------------|-2--x-x-----x-x-|-----x-x-------|
|-3----------|--------------|-2--x-x-10--x-x-|--9--x-x-7\----|
|------------|---------2b3--|-0--x-x-----x-x-|-----x-x-------|

(Bb7)                       D5     F         E       D
  Gtr I
  Q  Q  H      Q  H    Q      Q  E E  Q  E E    Q  E E H
|------------|-3------------|----------------|---------------|
|------------|--------------|----------------|---------------|
|-------3----|----3---------|--------12------|-11------9\----|
|----2-------|--------------|-2--x-x-----x-x-|-----x-x-------|
|-3----------|--------------|-2--x-x-10--x-x-|--9--x-x-7\----|
|------------|---------2b3--|-0--x-x-----x-x-|-----x-x-------|
|
| Gtr II
| Q  Q  H      Q  H    Q      Q  E E  Q  E E    Q  E E H
|------------|-3------------|----------------|---------------|
|------------|--------------|--------12------|-10------8\----|
|-------3----|----3---------|----------------|---------------|
|----2-------|--------------|-2--x-x--9--x-x-|--7--x-x-5\----|
|-3----------|--------------|-2--x-x-----x-x-|-----x-x-------|
|------------|---------2b3--|-0--x-x-----x-x-|-----x-x-------|

(Bb7)                     F5
  Gtrs I, II
  Q  Q  H      Q  H.        E +E  Q  Q  Q    Q  Q  Q  Q
|------------|-3----------|-3-(3)----3-----|-3-----3-----|
|------------|------------|-3-(3)-3-----3--|-3--3-----3--|
|-------3----|----3-------|-0-(0)----------|-0-----------|
|----2-------|------------|-0-(0)----------|-0-----------|
|-3----------|------------|----------------|-------------|
|------------|------------|-3-(3)----------|-3-----------|

A5                        D5            C5
         ~~~~~~~~~~~~~~
  H      H      H    H      Q.   E H      Q.   E H
|-------------|-----------|-------------|-------------|
|-------------|-----------|-------------|-------------|
|-4-----------|-----------|-9----x-9----|-7----x-7----|
|-4----/10----|-9---------|-9----x-9----|-7----x-7----|
|-2-----------|------9----|-7----x-7----|-5----x-5----|
|-------------|-----------|-------------|-------------|

(Bb7)                                       F5
  Gtr I
                                ~~~~~~~~~
  E E E E E E Q    E +E    +E  +E    +H       Q  Q  Q  Q    Q  Q  Q  Q
|----------------|--------------------------|-3-----3-----|-3-----3-----|
|----------------|--------------------------|-3--3-----3--|-3--3-----3--|
|----------------|-3-(3)b5r(3)-(3)b5r(3)----|-0-----------|-0-----------|
|-------------2--|--------------------------|-0-----------|-0-----------|
|-3-3-3-3-3-3----|--------------------------|-------------|-------------|
|----------------|--------------------------|-3-----------|-3-----------|
|
| Gtr II
|                               ~~~~~~~~~
| E E E E E E Q    E +E    +E  +E    +H       Q  Q  Q  Q    Q  Q  Q  Q
|----------------|--------------------------|-3-----3-----|-3-----3-----|
|----------------|-5-(5)b6r(5)-(5)b6r(5)----|-3--3-----3--|-3--3-----3--|
|----------------|--------------------------|-0-----------|-0-----------|
|-------------2--|--------------------------|-0-----------|-0-----------|
|-3-3-3-3-3-3----|--------------------------|-------------|-------------|
|----------------|--------------------------|-3-----------|-3-----------|

C5/G        C#5/G#
  Gtrs I, II
  H    H      H    H
|-----------|-----------|
|-----------|-----------|
|-7----7----|-8----8----|
|-7----7----|-8----8----|
|-5----5----|-6----6----|
|-5----5----|-6----6----|

Interlude
  D5
  H                      H
|---------------------------------------------|
|---------------------------------------------|
|-9\------------------------------------------|
|-9\------------------------------------------|
|-7\------------------------------------------|
|---------------------------------------------|
|
| Gtr III
| S   S  S S  S  S S  S  S S  S  S S  S  S  S
|---------------------------------------------|
|---------------------------------------------|
|---------------------------------------------|
|--------------------12-14--------------------|
|---------------------------------------------|
|-0--10-12-0-10-12-0-------0-10-12-0-10-12-10-|

W
|------------------------------------------|
|------------------------------------------|
|------------------------------------------|
|------------------------------------------|
|------------------------------------------|
|------------------------------------------|
|
| S  S  S S  S  S S  S  S S  S  S S S  S S
|------------------------------------------|
|-------------------15-17------------------|
|------------------------------------------|
|-----------12-14-----------12-14----------|
|-----------------------------------9-10-9-|
|-0-10-12-0-------0-------0-------0--------|

W
|--------------------------------------------|
|--------------------------------------------|
|--------------------------------------------|
|--------------------------------------------|
|--------------------------------------------|
|--------------------------------------------|
|
| S  S  S S  S  S S  S  S S  S  S S  S  S  S
|--------------------------------------------|
|--------------------------------------------|
|--------------------------------------------|
|-------------------12-14--------------------|
|--------------------------------------------|
|-0-10-12-0-10-12-0-------0-10-12-0-10-12-10-|

H.                            E     E
|-------------------------------------------|
|-------------------------------------------|
|-------------------------------------------|
|-------------------------------------------|
|-------------------------------------------|
|-------------------------------------7/----|
|
| S  S S S S S S  S  S S  S  S  S  S  S   S
|------------------------10-12----15-17--19-|
|----------------10-12---------12-----------|
|----------7-9---------9--------------------|
|----7-9------------------------------------|
|--------------7----------------------------|
|-0------7----------------------------------|

~~
   H                     +H
|------------------------------------------------|
|------------------------------------------------|
|------------------------------------------------|
|------------------------------------------------|
|------------------------------------------------|
|-12--------------------(12)\--------------------|
|
|  S  S  S S  S  S S  S   S   S  S  S S  S  S  S
|------------------------------------------------|
|------------------------------------------------|
|------------------------------------------------|
|--------------------12--14----------------------|
|------------------------------------------------|
|--0-10-12-0-10-12-0----------0-10-12-0-10-12-10-|

W
|------------------------------------------|
|------------------------------------------|
|------------------------------------------|
|------------------------------------------|
|------------------------------------------|
|------------------------------------------|
|
| S  S  S S  S  S S  S  S S  S  S S S  S S
|------------------------------------------|
|-------------------15-17------------------|
|------------------------------------------|
|-----------12-14-----------12-14----------|
|-----------------------------------9-10-9-|
|-0-10-12-0-------0-------0-------0--------|

H.                               E     E
|---------------------------------------------|
|---------------------------------------------|
|---------------------------------------------|
|---------------------------------------------|
|---------------------------------------------|
|----------------------------------------x----|
|
| S   S  S S  S  S S  S  S S  S  S S  S  S  S
|---------------------------------------------|
|---------------------------------------------|
|---------------------------------------------|
|--------------------12-14--------------------|
|---------------------------------------------|
|-0--10-12-0-10-12-0-------0-10-12-0-10-12-10-|

H                          H
|----------------------------------------------------------------|
|----------------------------------------------------------------|
|----------------------------------------------------------------|
|----------------------------------------------------------------|
|----------------------------------------------------------------|
|-9/------------------------21\----------------------------------|
|
| |----6-----| |----6-----|  |-------6-------|  |------6-------|
| S  S S S S S S S S S S  S  S   S  S  S  S  S  S  S  S  S  S  S
|-------------------------------------------19-------24-------22-|
|------------------------10--------17----17-------24----22-24----|
|----------------------7--------16----16-------21----------------|
|----------7-9-------7------14-----------------------------------|
|--------7-----0-5-9---------------------------------------------|
|-0--5-7---------------------------------------------------------|

Guitar Solo
    Q=128
    N.C.
     S  S  S  S  S  S  S  S  S  S  S  S  S  S  S  S
||--------------------------------------------------|
||o-------------------------------------------------|
||--------------------------------------------------|
||--------------------12-12-------13-13-12-12-------|
||o-10-10-13-13-10-10-------10-10-------------12-12-|
||--------------------------------------------------|

S  S  S  S  S  S  S  S  S  S  S  S  S  S  S  S
|---------------------------------------------------||
|--------------------------------------------------o||
|---------------------------------------------------||
|-------------------12-12-------13-13-12-12---------||
|-10-10-13-13-10-10-------10-10-------------12-12--o||
|---------------------------------------------------||

S S  S  S S S  S  S S S  S  S  S  S  S  S
|-------------------------------------------|
|-------------------------------------------|
|-------------------------------------------|
|-------------------------------------------|
|---------------10-10-----13-13-12-12-------|
|-8-8-11-11-8-8-------8-8-------------11-11-|

S S  S  S S S  S  S S S  S  S  S  S  S  S
|-------------------------------------------|
|-------------------------------------------|
|-------------------------------------------|
|-------------------------------------------|
|---------------10-10-----13-13-12-12-------|
|-8-8-11-11-8-8-------8-8-------------11-11-|

S S  S  S S S  S  S S S  S  S  S  S  S  S
|-------------------------------------------|
|-------------------------------------------|
|-------------------------------------------|
|---------------10-10-----13-13-12-12-------|
|-9-9-12-12-9-9-------9-9-------------12-12-|
|-------------------------------------------|

S S  S  S S S  S  S S S  S  S  S  S S S
|-----------------------------------------|
|-----------------------------------------|
|-----------------------------------------|
|---------------10-10-----13-13-12-12-----|
|-9-9-12-12-9-9-------9-9-------------9-9-|
|-----------------------------------------|

S  S  S  S  S  S  S  S  S  S  S  S  S  S  S  S
|-------------------------------------------------|
|-------------------------------------------------|
|-------------------------------------------------|
|-------------------12-12-------13-13-12-12-------|
|-10-10-13-13-10-10-------10-10-------------12-12-|
|-------------------------------------------------|

S  S  S  S  S  S  S  S  S  S  S  S  S  S  S  S
|-------------------------------------------------|
|-------------------------------------------------|
|-------------------------------------------------|
|-------------------12-12-------13-13-12-12-------|
|-10-10-13-13-10-10-------10-10-------------10-10-|
|-------------------------------------------------|

S  S  S  S  S  S  S  S  S  S  S  S  S  S  S  S
|-------------------------------------------------|
|-------------------------------------------------|
|-------------------------------------------------|
|-------------------14-14-------17-17-14-14-------|
|-12-12-16-16-12-12-------12-12-------------16-16-|
|-------------------------------------------------|

S  S  S  S  S  S  S  S  S  S  S  S  S  S  S  S
|-------------------------------------------------|
|-------------------------------------------------|
|-------------------------------------------------|
|-------------------14-14-------17-17-14-14-------|
|-12-12-16-16-12-12-------12-12-------------16-16-|
|-------------------------------------------------|

S  S  S  S  S  S  S  S  S  S  S  S  S  S  S  S
|-------------------------------------------------|
|-------------------------------------------------|
|-------------------------------------------------|
|-------------------17-17-------20-20-17-17-------|
|-15-15-18-18-15-15-------15-15-------------18-18-|
|-------------------------------------------------|

S  S  S  S  S  S  S  S  S  S  S  S  S  S  S  S
|-------------------------------------------------|
|-------------------------------------------------|
|-------------------------------------------------|
|-------------------17-17-------20-20-17-17-------|
|-15-15-18-18-15-15-------15-15-------------18-18-|
|-------------------------------------------------|

S  S  S  S  S  S  S  S  S  S  S  S  S  S  S  S
|-------------------------------------------------|
|-------------------------------------------------|
|-------------------14-14-------17-17-14-14-------|
|-12-12-16-16-12-12-------12-12-------------16-16-|
|-------------------------------------------------|
|-------------------------------------------------|

S  S  S  S  S  S  S  S  S  S  S  S  S  S  S  S
|-------------------------------------------------|
|-------------------------------16-16-15-15-------|
|-------------------14-14-------------------------|
|-12-12-16-16-12-12-------12-12-------------16-16-|
|-------------------------------------------------|
|-------------------------------------------------|

Unison/Harmony Lead
  N.C.
  Gtrs I, II, III
   S  S  S  S  S  S  S  S  S  S  S  S  S  S  S  S
|-------------------------------------------------|
|----------10-11-10-------15-11-------------11----|
|-------12----------12----------12-14-12-------12-|
|----12----------------12----------------12-------|
|-10----------------------------------------------|
|-------------------------------------------------|

|------6-------|  |------6-------|
   S  S  S  S  S  S  S  S  S  S  S  S  S  S  S  S  S  S  S  S
|-------------------------15p10----10---------------------------|
|----------10-11-10-------------11----11----11------------------|
|-------12----------12-------------------12----12----12---------|
|----12----------------12-------------------------12----12------|
|-10-------------------------------------------------------13---|
|---------------------------------------------------------------|

S  S  S  S  S  S  S  S  S  S  S  S  S  S  S  S
|-------------10----------11----------------10----|
|----------13----13----------13----13----------13-|
|-------12----------12----------12----12----------|
|----13----------------13----------------13-------|
|-10----------------------------------------------|
|-------------------------------------------------|

|------6-------|  |------6-------|
   S  S  S  S  S  S  S  S  S  S  S  S  S  S  S  S  S  S  S  S
|-------------10----------------------------11-------15p11------|
|----------13----13----------------13----------13----------13---|
|-------12----------12----12----------12----------12------------|
|----13----------------13----13-10-------13---------------------|
|-10------------------------------------------------------------|
|---------------------------------------------------------------|

S  S  S  S  S  S  S  S  S  S  S  S  S  S  S  S
|----------10-11-10-------15-11-------------11----|
|-------13----------13----------13-15-13-------13-|
|----12----------------12----------------12-------|
|-10----------------------------------------------|
|-------------------------------------------------|
|-------------------------------------------------|

|------6-------|  |------6-------|
   S  S  S  S  S  S  S  S  S  S  S  S  S  S  S  S  S  S  S  S
|----------10-11-10-------20-15----15-------11------------------|
|-------13----------13----------16----16-------13----13---------|
|----12----------------12----------------17-------12----12------|
|-10-------------------------------------------------------13---|
|---------------------------------------------------------------|
|---------------------------------------------------------------|

S  S  S  S  S  S  S  S  S  S  S  S  S  S  S  S
|-------------14----------17-14----14-------------|
|----------13----13-------------13----13----13----|
|-------14----------14-------------------14----14-|
|-13-16----------------16-------------------------|
|-------------------------------------------------|
|-------------------------------------------------|

|------6-------|  |------6-------|
   S  S  S  S  S  S  S  S  S  S  S  S  S  S  S  S  S  S  S  S
|-------------14----------------------14-17-14------------------|
|----------13----13----------------13----------13---------------|
|-------14----------14----------14----------------14------------|
|-13-16----------------16----16----------------------16---------|
|-------------------------17----------------------------17-12---|
|---------------------------------------------------------------|

Gtrs I, II
   S  S  S  S  S  S  S  S  S  S  S  S  S  S  S  S
|-------------------------------------------------|
|----------10-11-10-------15-11-------------11----|
|-------12----------12----------12-14-12-------12-|
|----12----------------12----------------12-------|
|-10----------------------------------------------|
|-------------------------------------------------|
|
| Gtr III
|  S  S  S  S  S  S  S  S  S  S  S  S  S  S  S  S
|-------------------------15----------------------|
|----------13-15-13----------15-------------------|
|----12-15----------15-12-------15-17-15-14-12----|
|-12-------------------------------------------13-|
|-------------------------------------------------|
|-------------------------------------------------|

|------6-------|  |------6-------|
   S  S  S  S  S  S  S  S  S  S  S  S  S  S  S  S  S  S  S  S
|-------------------------18-15----15---------------------------|
|----------10-11-10-------------15----15----15------------------|
|-------12----------12-------------------15----15----15---------|
|----12----------------12-------------------------17----17------|
|-10-------------------------------------------------------17---|
|---------------------------------------------------------------|
|
|                          |------6-------|  |------6-------|
|  S  S  S  S  S  S  S  S  S  S  S  S  S  S  S  S  S  S  S  S
|-------------------------22-18----18---------------------------|
|----------13-15-13-------------20----20----20------------------|
|----12-15----------15-12----------------19----19----19---------|
|-12----------------------------------------------20----20-17---|
|---------------------------------------------------------------|
|---------------------------------------------------------------|

S  S  S  S  S  S  S  S  S  S  S  S  S  S  S  S
|-------------------------------------------------|
|-------------11----------14-11----11-------------|
|----------12----12-------------12----12----12----|
|----11-14----------14-11----------------14----14-|
|-12----------------------------------------------|
|-------------------------------------------------|
|
|  S  S  S  S  S  S  S  S  S  S  S  S  S  S  S  S
|-------------------------------------------------|
|-------------14----------17-14----14-------------|
|----------15----15-------------15----15----15----|
|----14-17----------17-14----------------17----17-|
|-16----------------------------------------------|
|-------------------------------------------------|

|------6-------|
   S  S  S  S  S  S  S  S  T  T     T     T  T  T     T     T  S  S  S  S  S  S
|----------------------------------------------15h===18p===15--------------------|
|-------------11----------------------------17----------------17-14--------------|
|----------12----12----------------15----18-------------------------15-----------|
|----11-14----------14-11-14-17----------------------------------------17-14-----|
|-12-------------------------------------------------------------------------16--|
|--------------------------------------------------------------------------------|
|
|                          |--------------6--------------|     |------6-------|
|  S  S  S  S  S  S  S  S  S     S     S     S     S     S     S  S  S  S  S  S
|-------------------------------------------------18----21----18-----------------|
|-------------14----------------------------17-------------------17--------------|
|----------15----15-------------15----18----------------------------18-15--------|
|----14-17----------17-14-17----------------------------------------------17-14--|
|-16-----------------------------------------------------------------------------|
|--------------------------------------------------------------------------------|

S  S  S  S  S  S  S  S  S  S  S  S  S  S  S  S
|-------------------------15----------------------|
|----------15-16-15----------16----15-------16----|
|-------17----------17----------17----17-------17-|
|----17----------------17----------------17-------|
|-15----------------------------------------------|
|-------------------------------------------------|
|
|  S  S  S  S  S  S  S  S  S  S  S  S  S  S  S  S
|-------------------------20----------------------|
|----------18-20-18----------20-16-18-16----20-16-|
|----17-20----------20-17----------------17-------|
|-17----------------------------------------------|
|-------------------------------------------------|
|-------------------------------------------------|

|--3--|
   S  S  S  S  S  S  S  S  S  S  S  S  S  S  S  S  S
|-------------------------15-20-15s11-----------------|
|----------15-16-15-------------------13--------------|
|-------17----------17-------------------12-----------|
|----17----------------17-------------------13-10-----|
|-15----------------------------------------------10--|
|-----------------------------------------------------|
|
|                          |--3--|
|  S  S  S  S  S  S  S  S  S  S  S  S  S  S  S  S  S
|-----------------------------------------------------|
|----------18-20-18-------16-20-16--------------------|
|----17-20----------20-17----------17-----------------|
|-17----------------------------------17--------------|
|----------------------------------------18-15----15--|
|----------------------------------------------15-----|

|------6-------|  |------6-------|  |------6-------|  |------6-------|
   S  S  S  S  S  S  S  S  S  S  S  S  S  S  S  S  S  S  S  S  S  S  S  S
|-------------------------------------------------------------------------|
|-------------------------------------------------------11-13-15-11-13-15-|
|-------------------------------------11-12-14-11-12-14-------------------|
|-------------------10-12-13-10-12-13-------------------------------------|
|--9-10-12--9-10-12-------------------------------------------------------|
|-------------------------------------------------------------------------|
|
|  |------6-------|  |------6-------|  |------6-------|  |------6-------|
|  S  S  S  S  S  S  S  S  S  S  S  S  S  S  S  S  S  S  S  S  S  S  S  S
|-------------------------------------------------------------------------|
|-------------------------------------------------------15-16-19-15-16-19-|
|-------------------------------------14-15-17-14-15-17-------------------|
|-------------------12-13-16-12-13-16-------------------------------------|
|-12-13-15-12-13-15-------------------------------------------------------|
|-------------------------------------------------------------------------|

~~
   |------6-------|  |------6-------|  |------6-------|
   S  S  S  S  S  S  S  S  S  S  S  S  S  S  S  S  S  S  Q
|----------------------14-15-14-------------------------------|
|----------11-13-15-16----------16-15-13-11-10----------------|
|-11-12-14-------------------------------------12-11----------|
|----------------------------------------------------13-12----|
|-------------------------------------------------------------|
|-------------------------------------------------------------|
|
|                                                        ~~
|  |------6-------|  |------6-------|  |------6-------|
|  S  S  S  S  S  S  S  S  S  S  S  S  S  S  S  S  S  S  Q
|----------------14-15-17-18-15-17-14-------------------------|
|----------15-16----------------------16-15-------------------|
|-14-15-17----------------------------------17-15-14----------|
|----------------------------------------------------17-16----|
|-------------------------------------------------------------|
|-------------------------------------------------------------|

Guitar Solo
  (Dm/A)            (Dm)
  Gtrs I, II
  E E E E E E E E     S  +S   E  E  E  E  E  E  E
|-----------------|-------------------------------|
|-8-------8-------|-/12-(12)----------12----12-14-|
|---9---9---9---9-|----------12----12----12-------|
|-----9-------9---|-------------14----------------|
|-----------------|-------------------------------|
|-----------------|-------------------------------|

(E/B)                          (E)
   S  +S   E  E  E  E  E  E  E     S  +S   E  E  E  H
|------------------------------|-------------------------|
|-11-(11)----------11----------|-/14-(14)----------14----|
|---------11----11----11----11-|----------15----15-------|
|------------11----------11----|-------------16----------|
|------------------------------|-------------------------|
|------------------------------|-------------------------|

(Gm/D)                         (Gm)
   S  +S   E  E  E  E  E  E  E     S  +S   E  E  E  E  E  E  E
|------------------------------|-------------------------------|
|-13-(13)----------13----------|-/17-(17)----------17----17-19-|
|---------14----14----14----14-|----------17----17----17-------|
|------------14----------14----|-------------19----------------|
|------------------------------|-------------------------------|
|------------------------------|-------------------------------|

(A/E)                          (A)
   S  +S   E  E  E  E  E  E  E    S  +S   E  E  E  H
|------------------------------|-14-(14)----------14----|
|-16-(16)----------16----------|---------16----16-------|
|---------16----16----16----16-|------------16----------|
|------------16----------16----|------------------------|
|------------------------------|------------------------|
|------------------------------|------------------------|

(Dm/A)                         (Dm)
   S  +S   E  E  E  E  E  E  E     S  +S   E  E  E  E  E  E  E
|-15-(15)----------15----------|-/19-(19)----------19----19-21-|
|---------17----17----17----17-|----------20----20----20-------|
|------------16----------16----|-------------21----------------|
|------------------------------|-------------------------------|
|------------------------------|-------------------------------|
|------------------------------|-------------------------------|

(E/B)                          (E)
   S  +S   E  E  E  E  E  E  E    S  +S   E  E  E  E  E  Q
|-18-(18)----------18----------|-21-(21)----------21--------|
|---------19----19----19----19-|---------23----23----23-----|
|------------18----------18----|------------23----------23--|
|------------------------------|----------------------------|
|------------------------------|----------------------------|
|------------------------------|----------------------------|

(Gm/Bb)                        (Gm/D)
   S  +S   E  E  E  E  E  E  E    S  +S   E  E  E  E  E  E  E
|-17-(17)----------17-------19-|-20-(20)----------20----24----|
|---------17----17----17-------|---------22----22----22----22-|
|------------17----------17----|------------21----------------|
|------------------------------|------------------------------|
|------------------------------|------------------------------|
|------------------------------|------------------------------|

(A/C#)                         (A/E)
                                                   ~~~~~~
   S  +S   E  E  E  E  E  E  E    S  +S   E  E  E  Q.       +E
|-19-(19)----------19----------|-23-(23)----------24b26====(24)r\-|
|---------19----19----19----19-|---------24----24-----------------|
|------------20----------20----|------------23--------------------|
|------------------------------|----------------------------------|
|------------------------------|----------------------------------|
|------------------------------|----------------------------------|

Chorus
  (Bb7)                       D5     F         E       D
  Q  Q  H      Q  H    Q      Q  E E  Q  E E    Q  E E H
|------------|-3------------|----------------|---------------|
|------------|--------------|----------------|---------------|
|-------3----|----3---------|--------12------|-11------9\----|
|----2-------|--------------|-2--x-x-----x-x-|-----x-x-------|
|-3----------|--------------|-2--x-x-10--x-x-|--9--x-x-7\----|
|------------|---------2b3--|-0--x-x-----x-x-|-----x-x-------|

(Bb7)                       D5     F         E       D
  Gtr I
  Q  Q  H      Q  H    Q      Q  E E  Q  E E    Q  E E H
|------------|-3------------|----------------|---------------|
|------------|--------------|----------------|---------------|
|-------3----|----3---------|--------12------|-11------9\----|
|----2-------|--------------|-2--x-x-----x-x-|-----x-x-------|
|-3----------|--------------|-2--x-x-10--x-x-|--9--x-x-7\----|
|------------|---------2b3--|-0--x-x-----x-x-|-----x-x-------|
|
| Gtr II
| Q  Q  H      Q  H    Q      Q  E E  Q  E E    Q  E E H
|------------|-3------------|----------------|---------------|
|------------|--------------|--------12------|-10------8\----|
|-------3----|----3---------|----------------|---------------|
|----2-------|--------------|-2--x-x--9--x-x-|--7--x-x-5\----|
|-3----------|--------------|-2--x-x-----x-x-|-----x-x-------|
|------------|---------2b3--|-0--x-x-----x-x-|-----x-x-------|

(Bb7)                     F5
  Gtrs I, II
  Q  Q  H      Q  H.        E +E  Q  Q  Q    Q  Q  Q  Q
|------------|-3----------|-3-(3)----3-----|-3-----3-----|
|------------|------------|-3-(3)-3-----3--|-3--3-----3--|
|-------3----|----3-------|-0-(0)----------|-0-----------|
|----2-------|------------|-0-(0)----------|-0
 
 
Dream Theater - Never Enough :: indexed at Ultimate Guitar.
Never Enough tabs @ 911Tabs

Quick tip, so you can enjoy Never Enough even more:

If you don't really know how to deal with "Absus4" chord and his equally confusing brothers, just put the mouse cursor over them and you will be shown a helpful chord diagram.

Show us your talent, perform Never Enough!

Here you can post a video or audio performance. Tell me more ...
Where can we find your performance? Tell me more ...
Your comment:
Please, log in to post your performance.