Artists by letter: A B C D E F G H I J K L M N O P Q R S T U V W X Y Z 0-9

 
Instrumedely
Not my transcription

Transcribed by R. Thomas

The Dance Of Eternity
  Q=110
                            D5
 4/4
                            Gtr I
                            PM-----------------------
                            |-3-|           |-3-|
  Wx4          Wx4          S S S e E e E e S S S e
|------------|------------|-------------------------|
|------------|------------|-------------------------|
|------------|------------|-------------------------|
|------------|------------|-0-0-0-0---0---0-0-0-0-0-|
|------------|------------|-------------------------|
|------------|------------|-------------------------|

-----------------------|
  |-3-|           |-3-|
  S S S e E e E e S S S e
|---------------------------|
|---------------------------|
|---------------------------|
|-0-0-0-0---0---0-0-0-0-0---|
|---------------------------|
|---------------------------|

D5/A
  PM--------------------|
  |-3-|           |-3-|     |-3-|     |-3-| |-3-|   |-3-|
  S S S e E e E e S S S e   S S S e E S S S S S S e S S S e
|-------------------------|---------------------------------|
|-------------------------|---------------------------------|
|-------------------------|---------------------------------|
|-0-0-0-0---0---0-0-0-0-0-|-7-7-7-7---7-7-7-7-7-7-7-7-7-7-7-|
|-------------------------|-5-5-5-5---5-5-5-5-5-5-5-5-5-5-5-|
|-------------------------|-5-5-5-5---5-5-5-5-5-5-5-5-5-5-5-|

Q=130
  G5       G#5    G5       F5   E5        C5/G F#5
                 7/8           3/4
  H    +E  Q.     H    +E  Q    H.        Q.   E +Q
|-3----(3)------|-3----(3)----|---------|--------------|
|-3----(3)------|-3----(3)----|---------|--------------|
|-0----(0)------|-0----(0)----|---------|--------------|
|-0----(0)-6----|-0----(0)-3--|-2-------|-5----4-(4)---|
|----------6----|----------3--|-2-------|-3----4-(4)---|
|-3----(3)-4----|-3----(3)-1--|-0-------|-3----2-(2)---|

G5       G#5    G5       F5   E5        C5/G Eb5/Bb
 4/4             7/8           3/4
  H    +E  Q.     H    +E  Q    H.        Q.   E +Q
|-3----(3)------|-3----(3)----|---------|-------------|
|-3----(3)------|-3----(3)----|---------|-------------|
|-0----(0)------|-0----(0)----|---------|-------------|
|-0----(0)-6----|-0----(0)-3--|-2-------|-5----8-(8)--|
|----------6----|----------3--|-2-------|-3----6-(6)--|
|-3----(3)-4----|-3----(3)-1--|-0-------|-3----6-(6)--|

N.C.
 4/4               7/8               4/4               5/8
  PM----|       PM------|         PM----|           PM      PM
  E E E E E E E E   E E E S S E E E   E E E E E E E E   E E E E E
|-----------------|-----------------|-----------------|-----------|
|-----------------|-----------------|-----------------|-----------|
|-----------------|-----------------|-----------4-5---|-----------|
|-----5---3-6-5---|---------3-5-----|-----2-3-2-------|-5-----6---|
|---5---5-------6-|-5---5-6-----3---|---2-----------3-|---4-------|
|-3---------------|---3-----------1-|-0---------------|-----2---4-|

4/4               7/8               4/4                   5/8
  PM----|       PM------|         PM----|                         PM|
                                                    |-3-|
  E E E E E E E E   E E E S S E E E   E E E E E E E S S S   E E E E E
|-----------------|-----------------|---------------------|-----------|
|-----------------|-----------------|---------------------|-----------|
|-----------------|-----------------|-----------4-5-------|---8-------|
|-----5---3-6-5---|---------3-5-----|-----2-3-2-----------|-5---6-----|
|---5---5-------6-|-5---5-6-----3---|---2-----------3-5-6-|-----------|
|-3---------------|---3-----------1-|-0-------------------|-------6-4-|

3/8           7/16            2/4             7/16
  E S S +S  S   S S S S S S S   E S S +S  S E   S S S S S S S
|-------------|---------------|---------------|----------------|
|-------------|---------------|---------------|----------------|
|-------------|---------------|---------------|-7-5------------|
|-------------|---------3h5-6-|-5-6-5-(5)-6-5-|-----6-5--------|
|-------------|-----3h5-------|---------------|---------8-6-5--|
|-3-4-3-(3)-4-|-3h4-----------|---------------|----------------|

5/8               7/16            2/4               3/8
  E S S +S  S E E   S S S S S S S   E S S +S  S S S   S S S S S S
|-----------------|---------------|-----------------|-------------|
|-----------------|---------------|-----------------|-------------|
|-----------------|---------------|-----------------|-7-5---------|
|-----------------|---------3h5-6-|-5-6-5-(5)-6-5h6-|-----6-5-----|
|-----------------|-----3h5-------|-----------------|---------8-6-|
|-3-4-3-(3)-4-3-4-|-3h4-----------|-----------------|-------------|

D5/A(typeEb5/Bb D5/A(typeC5/G B5/F#     G5   C#5/Ab
 4/4             7/8           3/4
  H    +E  Q.     H    +E  Q    H.        Q.   E +Q
|---------------|-------------|---------|-3-----------|
|---------------|-------------|---------|-3-----------|
|---------------|-------------|---------|-0-----------|
|-7----(7)-8----|-7----(7)-5--|-4-------|-0----6-(6)--|
|-5----(5)-6----|-5----(5)-3--|-2-------|------4-(4)--|
|-5----(5)-6----|-5----(5)-3--|-2-------|-3----4-(4)--|

D5/A     Eb5/Bb D5/A     C5/G Ab5        G5
 4/4             7/8           4/4        5/4
  H    +E  Q.     H    +E  Q    W          Q   H    H
|---------------|-------------|----------|---------------|
|---------------|-------------|----------|---------------|
|---------------|-------------|----------|---------------|
|-7----(7)-8----|-7----(7)-5--|-6--------|-5\------------|
|-5----(5)-6----|-5----(5)-3--|-6--------|-5\------------|
|-5----(5)-6----|-5----(5)-3--|-4--------|-3\------------|

N.C.
 5/8               7/16            2/4             7/16
  E S S +S  S E E   S S S S S S S   E S S +S  S E   S S S S S S S
|-----------------|---------------|---------------|---------------|
|-----------------|---------------|---------------|---------------|
|-----------------|---------------|---------------|-7-5-----------|
|-----------------|---------3h5-6-|-5-6-5-(5)-6-5-|-----6-5-------|
|-----------------|-----3h5-------|---------------|---------8-6-5-|
|-3-4-3-(3)-4-3-4-|-3h4-----------|---------------|---------------|

Bb5  Ab5    D5/A(E5pe 2)
 3/8           7/16            4/4              3/4
  E S S +S  S   S S S S S S S   Q.   E +Q   Q    E E Q  Q    E E Q  Q
|-------------|---------------|----------------|-----------|-----------|
|-------------|---------------|----------------|-----------|-----------|
|-------------|---------------|----------------|-----------|-----------|
|-------------|---------3h5-6-|-8----6-(6)--7--|-2---------|-2---------|
|-------------|-----3h5-------|-8----6-(6)--5--|-2---------|-2---------|
|-3-4-3-(3)-4-|-3h4-----------|-6----4-(4)--5--|-0---------|-0---------|

Metropolis Pt. 1
    E.=180
    N.C.
   18/16
    PM--|       PM--|               PM--|       PM--|
    S S S S S S S S S S S S E E E   S S S S S S S S S S S S E E E
||--------------------------------|--------------------------------||
||o-------------------------------|-------------------------------o||
||--------------------------------|--------------------------------||
||--------2-2-2-------2-2-2---2-3-|-------2-2-2-------2-2-2---2-3--||
||o-------------------------2-----|-------------------------2-----o||
||--0-0-0-------0-0-0-------------|-0-0-0-------0-0-0--------------||

7/8                         9/8
  S S S S S S S S S S S S E   S S S  S S S S  S S S  S  S E  E E
|---------------------------|------------------------------------|
|---------------------------|------------------------------------|
|-------6-3-------------7---|-------10-7---------------11---13---|
|-----5-----4---------6-----|-----9------8----------10------12---|
|---4---------5-----5-------|---8----------9------9---------11---|
|-3-------------6-4---------|-7--------------10-8-----------10---|

7/8
   S  S  S  S  S  S  S  S  S  S  S  S E
|---------------------------------------|
|---------------------------------------|
|----------14-11-------------------15---|
|-------13-------12-------------14------|
|----12-------------13-------13---------|
|-11-------------------14-12------------|

2/4                   3/4
   S  S  S  S  S  S E    e S  S  e S  S  e E
|---------------------|----------------------|
|---------------------|-16-------------------|
|-15-14-13-12---------|--------------14------|
|-------------16-15---|------13-13------15---|
|---------------------|----------------------|
|---------------------|----------------------|

A5
 7/8
  PM--------------------|   PM----------------------|
  S S S S S S S S S S S S S S   S S S S S S S S S S S S E
|-----------------------------|---------------------------|
|-----------------------------|---------------------------|
|-----------------------------|---------------------------|
|-----------------------------|-----------------------2---|
|-------------3-3-2-2-1-0---0-|-------------3-3-2-2-1-0---|
|-3-3-2-2-1-1-----------------|-3-3-2-2-1-1---------------|

A5
 7/8                           4/4
  PM------------------------------------------------|
  S S S S S S S S S S S S S S   S S S S S S S S S S S S Q
|-----------------------------|----------------------------|
|-----------------------------|----------------------------|
|-----------------------------|----------------------------|
|-----------------------------|-----------------------2----|
|-------------3-3-2-2-1-0---0-|-------------3-3-2-2-1-0----|
|-3-3-2-2-1-1-----------------|-3-3-2-2-1-1----------------|

Erotomania
    Q=160
   5/4
    E E E E E E E E E E   E E E E E E E E E E
||----------------------|---------------------|
||o---------------------|---------------------|
||----------------------|---------------------|
||----------------------|---------------------|
||o---------2-5-4-------|---------4-7-6-------|
||--2-3-4-5-------3---0-|-4-5-6-7-------5---0-|

9/8
  E E E E E E E E E E   E E E E E E E E E
|---------------------|--------------------||
|---------------------|-------------------o||
|---------------------|--------------------||
|---------------------|--------------------||
|---------2-5-4-------|---------4-7-6-----o||
|-2-3-4-5-------3---0-|-4-5-6-7-------5-0--||

5/4
      PM    ~        PM                          PM    ~        PM
    E E E E Q  E E E E   E E E E E E E E E E   E E E E Q  E E E E
||---------------------|---------------------|--------------------|
||o--------------------|---------------------|--------------------|
||---------------------|---------------------|--------------------|
||--------9-8----6-----|-----7-6---5---------|-------9-8----6-----|
||o-7---7------7-------|-4-5---------3-------|-7---7------7-------|
||----0--------------0-|---------3-----1---0-|---0--------------0-|

1.
 3/4                       2/4
        ~~           ~~          ~
  E E E Q.     E E E Q.      E E Q
|------------|------------|----------||
|------------|------------|---------o||
|------------|------------|----------||
|-3-5-7------|-1-3-5------|----------||
|-------5----|-------3----|-/4-3-2--o||
|------------|------------|----------||

2.
 3/4                             2/4
            ~~~            ~~            ~~
                                   |--3--|
   E  E  E  Q.     E  E  E Q.      E  E  E  Q
|-10-12-13-------|-8-10-11------|--------------|
|----------10----|---------8----|-11-11-10-----|
|----------------|--------------|----------11--|
|----------------|--------------|--------------|
|----------------|--------------|--------------|
|----------------|--------------|--------------|

N.C.
 11/8                10/8
  Q.   Q.   Q.   Q    Q.   Q.   Q  Q
|-------------------|-----------------|
|-------------------|-----------------|
|-------------------|-----------------|
|-------------------|-----------------|
|-------------------|-----------------|
|-3----2----1----0--|-3----2----1--0--|

G        D/F#  F      Em
 11/8                       12/8
   PM-----------------------------------|   PM        PM|
   E  E  E E E E E E E E E    E  E  E E E E E E  E E  E E
|--------------------------|-------------------------------|
|--------------------------|-------------------------------|
|--------------------------|--------------7----------------|
|--------------------------|------------7-----7-10-9-------|
|-10-10-10-9-9-9-8-8-8-7-7-|-10-10-10-9-----8--------10-7--|
|--------------------------|-------------------------------|

10/8                  12/8
  PM|     PM--------|     PM
  E E E E E E E E E E   E E E E E E E E E S S S S E
|---------------------|-----------------------------|
|---------------------|-------7-8-------------------|
|-----5-4-------------|-----------9-7-----5-4-5-4---|
|---4-----7-5-4-5-7-4-|-5---9---------6-9---------7-|
|-6-------------------|---7-------------------------|
|---------------------|-----------------------------|

Q.=80
  C             Am            E             G
  PM----------------------------------------------------|
  |-3-| |-3-|   |-3-| |-3-|   |-3-| |-3-|   |-3-| |-3-|
  S S S S S S e S S S S S S e S S S S S S e S S S S S S e
|----------------------------------------------------------|
|----------------------------------------------------------|
|---7-5-4---------5-4-2------------------------------------|
|---------7-5-4---------5-4-2---9-7-5---------7-5-4--------|
|-3-------------0---------------------9-7-5---------7-5-3--|
|-----------------------------0-------------3--------------|

F
 3/4
  PM--------------------|     PM
  |----6----| |----6----| |----6----|
  S S S S S S S S S S S S S S S S S S
|-------------------------------------|
|-------------------------------------|
|-------------------------2-4---2-4-5-|
|---5-3-2-----------2-3-5-----5-------|
|---------5-3-2-3-5-------------------|
|-1-----------------------------------|

D                       E
 4/4
  PM--|   PM|     PM      PM--|   PM|     PM
  |----6----| |----6----| |----6----| |----6----|
  S S S S S S S S S S S S S S S S S S S S S S S S
|--------------------------------------------------|
|--------------------------------------------------|
|-------4-----4-5---4-5-7-------6-----6-7---6-7-9--|
|-4-5-7---5-7-----7-------6-7-9---7-9-----9--------|
|--------------------------------------------------|
|--------------------------------------------------|

S  S  S  S  T  T  S  S S  T T  S  S S T T  S  S S
|----------------------------------------------------||
|----------------------------------------------------||
|-10-14-14-10h11p10----------------------------------||
|-------------------12-12-9h10p9---------------------||
|--------------------------------11-11-8h9p8---------||
|--------------------------------------------10-10-7-||

S  S  S S  T T  S  S S T T S S S T T S S S
|--------------------------------------------|
|--------------------------------------------|
|---12-12-9h10p9-----------------------------|
|----------------10-10-7h8p7-----------------|
|----------------------------9-9-5h6p5-------|
|-8------------------------------------8-8-5-|

S  S  S S T T S S S T T S S S T T S S S
|-----------------------------------------|
|-----------------------------------------|
|---10-10-7h8p7---------------------------|
|---------------9-9-6h7p6-----------------|
|-------------------------8-8-5h6p5-------|
|-7---------------------------------7-7-4-|

S S S S T T S S S T T S S S T T S S S
|---------------------------------------|
|---------------------------------------|
|---9-9-5h6p5---------------------------|
|-------------7-7-5h6p5-----------------|
|-----------------------7-7-4h5p4-------|
|-5-------------------------------5-5-3-|

Q=110
            ~~~~~~~~~~~~
                                                |-3-|
  E E E E a H      +E   E E E H         E E E E S S S E  E  E
|----------------|--------------------|-----------------------|
|----------------|--------------------|-----------------------|
|----------------|--------------------|-----------------------|
|-----2-3-3S5----|-(5)\---------------|-3-0-7-9-5-9-5-0-10-12-|
|---5------------|----------2-4tr5----|-----------------------|
|-1--------------|------0-4-----------|-----------------------|

|---3---| |--3--| |---3---| |--3--| |--3--| |-3-| |--3--| |-3-|
  T  T S  S S  S  S T  T S  S S  S  S T T S S S S S T T S S S S S
|-----------------------------------------------------------------|
|-----------------------------------------------------------------|
|-9-10-9----9-----------------------------------------------------|
|--------12---10-12-9-10-9----9-------2-3-2---2-------------------|
|--------------------------12---10-12-------5---3-5-2-3-2---2-----|
|---------------------------------------------------------5---3-5-|

2/4
  PM--------------------|
  |-3-| |-3-| |-3-| |-3-|
  S S S S S S S S S S S S
|---------------------------|
|---------------------------|
|---------------------------|
|---------------------------|
|---------------------------|
|-0-0-0-1-1-1-3-3-3-5-5-5---|

Bb5
 5/4                                          4/4
     PM|  ~~~~~~~PM|                                ~                   ~~
                        |-3--| |-----6-----|
  Q  S S  E  +E  S  S E S  S S S  S S S  S S   S  S Q   S S E.  S S  S  E
|--------------------------------------------|----------------------------|
|--------------------------------------------|----------------------------|
|--------------------------------------------|------7-----7-9--10-9-------|
|------------------------------------------7-|-8-10----10-----------10----|
|-8-------------------7------7-8----7-8-10---|-------------------------10-|
|-6--6-8-10-(10)-8-10---8-10-----10----------|----------------------------|

~~                          ~~
   T  T  T  T  T  T  T  T  Q   T  T  T  T  T  T  T  T  Q
|---------------------------------------------------------|
|---------------------------------------------------------|
|----------------10-12-14-15-----------------12-14-15-17--|
|-14-12-10-12-14--------------15-14-12-14-15--------------|
|---------------------------------------------------------|
|---------------------------------------------------------|

Q=160
  Gm
   |-----5-----|  |-----5-----|  |-----5-----|  |-----5-----|
   S  S  S  S  S  S  S  S  S  S  S  S  S  S  S  S  S  S  S  S
|-------------------------------------------------------------|
|----------------------------------------13-15-17-15-13-------|
|----------14-15-17-15-14-------------------------------------|
|-14-15-17----------------17-15-14-15-17----------------17-15-|
|-------------------------------------------------------------|
|-------------------------------------------------------------|

|-----5-----|  |-----5-----|  |-----5-----|  |-----5-----|
   S  S  S  S  S  S  S  S  S  S  S  S  S  S  S  S  S  S  S  S
|-------------------------------------------------------------|
|-------------------------------------------------------------|
|----------14-15-17-15-14----------------14-15-17-15-14-------|
|-14-15-17----------------------------------------------15-14-|
|-------------------------17-15-13-15-17----------------------|
|-------------------------------------------------------------|

Bb
   |-----5-----|  |-----5-----|  |-----5-----|  |-----5-----|
   S  S  S  S  S  S  S  S  S  S  S  S  S  S  S  S  S  S  S  S
|-------------------------------------------------------------|
|----------------------------------------11-13-15-13-11-------|
|----------12-14-15-14-12-------------------------------------|
|-12-14-15----------------15-14-12-14-15----------------15-14-|
|-------------------------------------------------------------|
|-------------------------------------------------------------|

|-----5-----|  |-----5-----|  |-----5-----|  |-----5-----|
   S  S  S  S  S  S  S  S  S  S  S  S  S  S  S  S  S  S  S  S
|-------------------------------------------------------------|
|-------------------------------------------------------------|
|----------12-14-15-14-12----------------12-14-15-14-12-------|
|-12-14-15----------------------------------------------14-12-|
|-------------------------15-14-12-14-15----------------------|
|-------------------------------------------------------------|

Dm
   |-----5-----|  |-----5-----| |----5-----|  |----5-----|
   S  S  S  S  S  S  S  S  S  S S  S  S S  S  S  S S  S  S
|----------------------------------------------------------||
|----------------------------------------------------------||
|----------10-12-14-12-10----------------------------------||
|-10-12-14-------------------------------------------12-10-||
|---------------------------------------8-10-12-10-8-------||
|-------------------------12-10-8-10-12--------------------||

G
  |----5-----|  |----5-----|  |-----5-----|  |-----5-----|
  S  S  S S  S  S  S S  S  S  S  S  S  S  S  S  S  S  S  S
|-------------------------------------12-13-15-13-12---------|
|----------------------15-13-12-13-15----------------13-12---|
|---------9-10-12-10-9---------------------------------------|
|-9-10-12----------------------------------------------------|
|------------------------------------------------------------|
|------------------------------------------------------------|

Am
   |-----5-----|  |----5-----| |---5----|  |----5----|
   S  S  S  S  S  S  S  S  S S S S  S S S  S S S  S  S
|----------10-12-13-12-10------------------------------|
|-10-12-13---------------------------------------12-10-|
|-------------------------------------7-9-10-9-7-------|
|-------------------------10-9-7-9-10------------------|
|------------------------------------------------------|
|------------------------------------------------------|

E
  |----5-----|  |---5----| |---5---| |---5---|
  S  S  S S  S  S  S S S S S S S S S S S S S S
|---------8-10-12-10-8-------------------------|
|-9-10-12----------------------------------8-6-|
|--------------------------------5-7-9-7-5-----|
|----------------------9-7-6-7-9---------------|
|----------------------------------------------|
|----------------------------------------------|

F                               Dm
 3/4
                  PM------|             PM----------------------|
  |---5---| |---5---| |---5---|   |---5---| |---5---| |----6----|
  S S S S S S S S S S S S S S S   S S S S S S S S S S S S S S S S
|-------5-7-8-7-5---------------|---------------------------------|
|-5-6-8-------------------------|---------------------------------|
|---------------------------2-4-|-5-4-2---------------------------|
|-----------------5-3-2-3-5-----|---------------------------------|
|-------------------------------|-----------------2-3-5-3-2-------|
|-------------------------------|-------5-3-1-3-5-----------5-3-1-|

Q=110
  E5
 4/4
  W          W          W          +H..       E
|----------|----------|----------|---------------|
|----------|-5--------|-5--------|-(5)-----------|
|----------|-4--------|-4--------|-(4)-----------|
|-2--------|-2--------|-2--------|-(2)-----------|
|-2--------|-2--------|-2--------|-(2)-----------|
|-0--------|-0--------|-0--------|-(0)-----------|

The Dance Of Eternity
    Q=122
    Em                       F#           Am
   5/4
     S  S  S  S S  S S S S S  S S  S  S S  S S  S S S
||--15p12---------12p7-------14p9---------12p8--------|
||o-------12-----------8----------11-----------10-----|
||-----------12----------9-----------11-----------9---|
||----------------------------------------------------|
||o---------------------------------------------------|
||----------------------------------------------------|

Em                   F#                  Am
 6/4
   S S S S S S S S S S S S S S S S S S S S S S S S
|-12p7-------7p3-------9p6-------6p2-------8p5-------||
|------8---------5---------7---------2---------5----o||
|--------9---------4---------6---------3-------------||
|----------------------------------------------------||
|---------------------------------------------------o||
|----------------------------------------------------||

Em
 4/4
   S S S  S S S S  S S S S S S S S S
|-12-7-0-11-7-0---10-9-0-8-7-0-6-5---|
|----------------------------------7-|
|------------------------------------|
|------------------------------------|
|------------------------------------|
|------------------------------------|

C7                B7
  S S S S S S  S  S  S  S  S  S  S  S S S
|-----------7-14-15-12----12-------12------|
|-8-----7h8------------11----11-10----8-7--|
|---8h9------------------------------------|
|------------------------------------------|
|------------------------------------------|
|------------------------------------------|

Em                                   E?7
   S S S  S S S S  S S S S S S S S S   S S S S S S S S S S  S S S S  S S
|-12-7-0-11-7-0---10-9-0-8-7-0-6-5---|-----------------------------------|
|----------------------------------7-|-8-------5-------------------------|
|------------------------------------|---5-6-8-------5-6-----------------|
|------------------------------------|-----------7-8----------7-8-7------|
|------------------------------------|-------------------9-10-------10-9-|
|------------------------------------|-----------------------------------|

Em                                C7              B7
  PM------------------------------------------|     PM----|   PM
  S S S S S S S S S S S S S S S S   S S S S S S S S S S S S S S S S
|---------------------------------|---------------------------------|
|---------------------------------|---------------------------------|
|---------------------------------|---------------------------------|
|---------------------------------|-------------4-5---------1---1-4-|
|-7-----6-------5-4---3-2---1-0---|-----------------2-3-4-5---2-----|
|---7-0---7-0-------0-----0-----2-|-3-2-0-2-6-7---------------------|

Em
  PM----------------------------|
  S S S S S S S S S S S S S S S S
|---------------------------------|
|---------------------------------|
|---------------------------------|
|---------------------------------|
|-7-----6-------5-4---3-2---1-0---|
|---7-0---7-0-------0-----0-----2-|

C5/G      B5/F#
                     |-------6-------|  |--------7--------|
  E e s s S S +S  S  T  T  T  T  T   T  S  S  S  S  S  S  S
|----------------------------------/14h19p14------------------|
|-------------------------------16-----------16---------------|
|----------------------------16-----------------16------------|
|-5-5-5-5---4-(4)---------16-----------------------16---------|
|-3-3-3-3---2-(2)---14h18-----------------------------18p14\--|
|-3-3-3-3---2-(2)---------------------------------------------|

H=124
  E5/B  B5/F#E5/B         B5/F#   C#5/AbC5/G B5/F#        D5/Eb5/Bb 2)
 2/2
  PM---------------------------------------------------------|
  Q  Q  Q  E E   +E  Q  E Q  Q    Q  Q  E Q  E   +E  E Q  Q  Q
|--------------|----------------|--------------|----------------|
|--------------|----------------|--------------|----------------|
|--------------|----------------|--------------|----------------|
|-9--9--4--4-9-|-(9)-9--9-4--4--|-6--6--5-5--4-|-(4)-4-4--7--8--|
|-7--7--2--2-7-|-(7)-7--7-2--2--|-4--4--3-3--2-|-(2)-2-2--5--6--|
|-7--7--2--2-7-|-(7)-7--7-2--2--|-4--4--3-3--2-|-(2)-2-2--5--6--|

E5/B  B5/F#E5/B         B5/F#   F#5/C#         B5/F#     G5/DF#5/F5/C
  PM---------------------------------------------------------------|
  Q  Q  Q  E E   +E  Q  E Q  Q     Q   Q   E  Q  E   +E  E  Q   Q   Q
|--------------|----------------|------------------|-------------------|
|--------------|----------------|------------------|-------------------|
|--------------|----------------|------------------|-------------------|
|-9--9--4--4-9-|-(9)-9--9-4--4--|-11--11--11-11--4-|-(4)-4-12--11--10--|
|-7--7--2--2-7-|-(7)-7--7-2--2--|--9---9---9--9--2-|-(2)-2-10---9---8--|
|-7--7--2--2-7-|-(7)-7--7-2--2--|--9---9---9--9--2-|-(2)-2-10---9---8--|

E5/B5/FEb5B5/F# D5/B5C#5/Ab)  B5/FC5/G       B5/F#        D5/Eb5/Bb 2)
  PM-----------------------------------------------------------|
  Q  E E Q  E E   Q  E E +E  Q  E   Q  Q  E Q  E   +E  E Q  Q  Q
|---------------|-----------------|--------------|----------------|
|---------------|-----------------|--------------|----------------|
|---------------|-----------------|--------------|----------------|
|-9--4-4-8--4-4-|-7--4-6-(6)-6--4-|-5--5--5-5--4-|-(4)-4-4--7--8--|
|-7--2-2-6--2-2-|-5--2-4-(4)-4--2-|-3--3--3-3--2-|-(2)-2-2--5--6--|
|-7--2-2-6--2-2-|-5--2-4-(4)-4--2-|-3--3--3-3--2-|-(2)-2-2--5--6--|

E5/B   F#5/C#    G5/D  G#5/D#            A5/E
  Q  E E  Q  E E    Q  E  E  +E   Q.     E  Q.    Q.    E    +Q    Q.    Q.
|----------------|---------------------|------------------|-------------------|
|----------------|---------------------|------------------|-------------------|
|----------------|---------------------|------------------|-------------------|
|-9--x-x-11--x-x-|-12--x-13-(13)-13----|---14----14----14-|-(14)--14----14----|
|-7--x-x--9--x-x-|-10--x-11-(11)-11----|---12----12----12-|-(12)--12----12----|
|-7--x-x--9--x-x-|-10--x-11-(11)-11----|---12----12----12-|-(12)--12----12----|

Q=130
  B5/F#
 4/4
          PM----------------------------|
          |--3--|  |--3--|  |--3--| |-3-|
   H      S  S  S  S  S  S  S  S  S S S S
|-----------------------------------------|
|-----------------------------------------|
|-----------------------------------------|
|-16\-------------------------------------|
|-14\----14-14-13-13-13-12-12-10-10-9-8-8-|
|-14\-------------------------------------|

Metropolis Pt. 1
  E5F#5                              G5
  E E Q  E E Q    E S S E E Q.   E   E Q.   S S E Q    H    E E Q
|---------------|------------------|-----------------|-------------|
|---------------|------------------|-----------------|-------------|
|---------------|------------------|-----------------|-------------|
|---4------4----|---4-4-4--------4-|-5------5-5-5----|--------5----|
|-2-4------4----|---4-4-4--------4-|-5------5-5-5----|--------5----|
|-0-2------2----|---2-2-2--------2-|-3------3-3-3----|--------3----|

A5               B5     E5  F#5
  E Q  E H      Q  E H    E   H    E. S +E  E   +W
|-------------|-------------|------0----------|--------|
|-------------|-------------|---------0-(0)---|--------|
|-------------|-------------|---------------3-|-(3)----|
|-7----7------|----9--------|-4---------------|--------|
|-7----7------|----9------2-|-4---------------|--------|
|-5----5------|----7------0-|-2---------------|--------|

N.C.
                   |--3--|
   e S  S E  e  e  S  S  S  T  T  T  T  T  T  T  T
|-12--------------12-14-12-11----------------------|
|------12---11----------------14-13-12-11----------|
|--------------11-------------------------14-13-12-|
|--------------------------------------------------|
|--------------------------------------------------|
|--------------------------------------------------|

|-3--|
   e S S E e  e S  S S T  T  T T T  T  T  T
|-------------------------------------------|
|-------------------------------------------|
|-11---9---8----9-11-9-8--------------------|
|------------11----------11-10-9-8----------|
|----------------------------------12-11-10-|
|-------------------------------------------|

~~~~
                       |-3-|                            |--3--|
  E. S +E  E  E. S +E  S S S   E.   S  +E   E  +Q.   S  T  T  T
|----------------------------|-------------------------------12-|
|----------------------------|----------------------------14----|
|----------------------------|----/11-(11)-11-(11)-----16-------|
|------------/9--8-(8)-6h7p6-|----------------------------------|
|-9--7-(7)-6-----------------|-9--------------------------------|
|----------------------------|----------------------------------|

~~~~~~~
   E. S  +E   E  a  E.  S  +E   E    E  +S      +S   +S   E S Q  +E  E
|-14s18-(18)-14-14h16--12-(12)-14-|-11-(11)b12r(11)-(11)-----------------|
|---------------------------------|----------------------12--------------|
|---------------------------------|---------------------------8--(8)-----|
|---------------------------------|----------------------------------9---|
|---------------------------------|--------------------------------------|
|---------------------------------|--------------------------------------|

~~~
  E.  S E S  S S  S S  S S  S S S   S S S S S S S S +H
|--------------9-14------9-12---5s|=6-7-8-9-5s6------------|
|---------------------------------|-------------7----------|
|----11---9-11------9-11----------|---------------6-(6)----|
|-8-------------------------------|------------------------|
|---------------------------------|------------------------|
|---------------------------------|------------------------|

S S  S  S  S S  S  S S S  S S S  S S S
|-------------------------------------------|
|-12-9-10-11-10-9---------------------------|
|-----------------11-10-9-8----8-9-11-9-8---|
|---------------------------11--------------|
|-------------------------------------------|
|-------------------------------------------|

PM---|
                                     |--3--|
   S  S S S  S S S  S S S  S  S S S  S  S  S
|--------------------------------------------|
|--------------------------------------------|
|--------------------------------------------|
|-11-10-9-8----8-9-11-9-8--------------------|
|-----------11------------11-10-9-7-11-12-13-|
|--------------------------------------------|

PM--------|     PM------|   PM------|   PM------|
   |------6------| |----6-----| |----6----| |----6----|
   S  S  S S  S  S S  S S S S S S S S S S S S S S S S S
|-------------------------------------------------------|
|-------------------------------------------------------|
|-11---------------9------------6-----------4-----------|
|-------------------------------------------------------|
|----13-11-9-10-11---11-9-7-8-9---9-7-4-5-6---6-4-2-3-4-|
|-------------------------------------------------------|

~~~
                                                     |-3-|
  S E.  H     +E  S S   +S     S S S  Q     S S S  S S S S  S S
|---------------------|--------7-8-9-10b12--9-8-7----7-8-7------|
|-------------------9-|-(9)b11--------------------10-------10-7-|
|-3-------------------|-----------------------------------------|
|---------------------|-----------------------------------------|
|---4--[4]----(4)-----|-----------------------------------------|
|---------------------|-----------------------------------------|

|-3-|
  S S S S S S S S S S S S S S S S   S S S S S S S S S Q  +Q       +Q   H.
|-7-5-----5h6---------------------|-----------------------------|--------------|
|-----7-5-----7-------------------|-----------------------------|--------------|
|---------------6-4-2-----2h3-----|-----------------------------|--------------|
|---------------------4-2-----4---|-4-3-2-------------4--(4)b7r=|=(4)--2tr4----|
|-------------------------------4-|-------4-2h3p2---------------|--------------|
|---------------------------------|---------------5-2-----------|--------------|

E F#7add11         E5         F#7add11
  E E +H.        +W           E Q.   Q  Q    Q  H.
|---0-(0)------|-(0)--------|---0----0-----|----------|
|---0-(0)------|-(0)--------|---0-------0--|----------|
|---3-(3)------|-(3)--------|---3----------|-3--------|
|-2-4-(4)------|-(4)--------|-2-4----------|----4-----|
|-2-4-(4)------|-(4)--------|-2-4----------|----------|
|-0-2-(2)------|-(2)--------|-0-2----------|----------|

N.C.(Em)
 3/4
  PM--|       PM|       PM--|       PM|
  S S S S +S  S E E E   S S S S +S  S E E E
|---------------------|---------------------|
|---------------------|---------------------|
|-------4-(4)---------|-------4-(4)---------|
|-----2-----------3-5-|-----2-----------3-5-|
|---2---------0-3-----|---2---------0-3-----|
|-0-------------------|-0-------------------|

4/4
  PM--|       PM|       PM--|       PM|
  S S S S +S  S E E E   S S S S +S  S E E E Q
|---------------------|------------------------|
|---------------------|------------------------|
|-------4-(4)---------|-------4-(4)------------|
|-----2-----------3-5-|-----2-----------3-5----|
|---2---------0-3-----|---2---------0-3--------|
|-0-------------------|-0----------------------|

The Darkest Of Winters
  Q=160
  N.C.
  PM------------------------------------------------------|
  S S S S S S S S S S S S S S S S   S S S S S S S S S S S S S S S S
|---------------------------------|---------------------------------|
|---------------------------------|---------------------------------|
|---------------------------------|-------------------------------4-|
|---------------------------------|-------------------------4-6-7---|
|-4-5-4-2-----------2-----------2-|-4-5-4-2-----------2-------------|
|---------5-4-2-4-5---5-4-2-4-5---|---------5-4-2-4-5---5-4---------|

S S S S S S S S S S S S S S S S   S S S S S S S S S S S S S S  S S
|---------------------------------|--------------------------------7-|
|---------------------------------|-------------------------7-9-10---|
|-6-7-6-4-----------4-----------4-|-6-7-6-4-----------4-6-7----------|
|---------7-6-4-6-7---7-6-4-6-7---|---------7-6-4-6-7----------------|
|---------------------------------|----------------------------------|
|---------------------------------|----------------------------------|

S  S S S  S S S S  S S  S S S S  S S   S  S S S  S S S S  S S  S S S S  S S
|-9-10-9-7-------------7-------------7-|-9-10-9-7-------------7-------------7-|
|----------10-9-7-9-10---10-9-7-9-10---|----------10-9-7-9-10---10-9-7-9-10---|
|--------------------------------------|--------------------------------------|
|--------------------------------------|--------------------------------------|
|--------------------------------------|--------------------------------------|
|--------------------------------------|--------------------------------------|

S  S  S  S  S  S  S  S  S  S  S  S  S  S  S  S
|-9-10-11-12-------------------------------------|
|------------------------10-11-12-13-------------|
|------------10-11-12-13-------------------------|
|------------------------------------11-12-13-14-|
|------------------------------------------------|
|------------------------------------------------|

S  S  S  S  S  S  S  S  S  S  S  S  S  S  S  S
|-------------------------------------------------|
|-------------------------------------------------|
|-10-11-12-13-------------------------------------|
|-------------------------11-12-13-14-------------|
|-------------12-13-14-15-------------------------|
|-------------------------------------13-14-15-16-|

C#                 C#sus4             C#m+5                C#m7
 3/4
  PM----|   PM|      PM----|   PM|      PM----|    PM|       PM----|   PM|
  S S S S E S S Q    S S S S E S S Q    S S S S  E S S  Q    S S S S E S S Q
|------------------|------------------|--------------------|------------------|
|------------------|---------7-----7--|---------10-----10--|------------------|
|---------6-----6--|---------6-----6--|----------9------9--|---------9-----9--|
|---------6-----6--|------------------|--------------------|---------9-----9--|
|-4-4-4-4---4-4----|-4-4-4-4---4-4----|--------------------|------------------|
|------------------|------------------|-9-9-9-9----9-9-----|-9-9-9-9---9-9----|

Q=150               Q=160
                      C5    B5      F#5   A5
                     4/4
  H.        H.         H     H       H     H
|---------|---------|-------------|-------------|
|---------|---------|-------------|-------------|
|---------|---------|-------------|-------------|
|---------|---------|-18----16----|-------------|
|---------|---------|-16----14----|-16----19----|
|---------|---------|-------------|-14----17----|

Q=170
  E5    G5      N.C.
                 PM---------------------|
   H     H       S  S  S  S  S  S  S  S  S  S  S  S  S  S  S  S
|-------------|----------------------------------------------12-|
|-------------|-------------------------------------12-15-18----|
|-------------|----------------------------12-15-18-------------|
|-------------|-------------------12-15-18----------------------|
|-14----17----|----------12-15-18-------------------------------|
|-12----15----|-12-15-18----------------------------------------|

S  S  S  S  S  S  S  S  S  S  S  S  S  S E
|-18-18-15-12----------------12-15-18-21-21---|
|-------------14-11----11-14------------------|
|-------------------12------------------------|
|---------------------------------------------|
|---------------------------------------------|
|---------------------------------------------|

Q=160                                                 Q=155
  N.C.(B)             (A)
  PM       PM         PM      PM        PM    PM    PM
  E E E  E E E E  E   E E E E E E E E   E E E E E E E E   Wx5
|-------------------|-----------------|-----------------|--------|
|-------------------|-----------------|-----------------|--------|
|-------------------|-----------------|-----------------|--------|
|-------------------|-----------------|-----------------|--------|
|---7-9-10---7-9-10-|---5-7-9---5-7-9-|---2-5---4-5-----|--------|
|-7--------7--------|-5-------5-------|-3-----1-----0-5-|--------|

Q=150
  (G)           (E)            (C)                 (A)
 3/4
  E E E E E E   E E E E E  E    E  E  E  E  E  E    E  E  E  E  E E
|-------------|---------7-10-|-15-14-------------|------------------|
|-------------|-------8------|-------15----------|------------------|
|-------------|-4-7-9--------|----------14-12-11-|------------------|
|-----------5-|--------------|-------------------|-12-11------------|
|-----2-5S7---|--------------|-------------------|-------12---------|
|-0-3---------|--------------|-------------------|----------12-10-9-|

(D)                                   (D#)
   S  S  S  S  S  S  S  S  S  S  S  S    S  S  S  S  S S S S S S S S
|-------------------------------15-17-|-14-11------------------------|
|-------------------------15-17-------|-------12-10------------------|
|-------------------12-14-------------|-------------11-8-------------|
|-------------12-14-------------------|------------------9-7---------|
|-------10-12-------------------------|----------------------9-6-----|
|-10-12-------------------------------|--------------------------7-5-|

The Ytse Jam
  Q=120
  E5         Bb5/F      A5              Eb5/Bb
 4/4                   5/4             4/4
                              \5
                                                TP
  W          W          H    +H.        H.      Q
|----------|----------|---------------|------------|
|----------|----------|---------------|------------|
|----------|----------|---------------|------------|
|-2--------|-3--------|---------------|-8-------8--|
|-2--------|-1--------|-0----(0)------|-6-------6--|
|-0--------|-1--------|---------------|-6-------6--|

TP         TP
  W          H.      Q    +W           +W
|----------|------------|------------|--------|
|----------|------------|------------|--------|
|----------|------------|------------|--------|
|-8--------|-8-------8--|-(8)--------|-(8)----|
|-6--------|-6-------6--|-(6)--------|-(6)----|
|-6--------|-6-------6--|-(6)--------|-(6)----|

Q=130
    N.C.
   7/4
    S S E E S S E E  S S  E  S  S  E  S S  E S S E
||-------------------------------------------------|
||o------------------------------------------------|
||--7-6-7---9-7-9---10-9-10-12-10-12-10-9-10-9-7-9-|
||--------0-------0--------------------------------|
||o------------------------------------------------|
||-------------------------------------------------|

1.,2.,3.
 11/8
  S S E E S S E S S E S S E S S E   3x
|-----------------------------------||
|----------------------------------o||
|-7-6-7-----------------------------||
|-------0-8-7-8-7-5-7-5-3-5-3-2-3---||
|----------------------------------o||
|-----------------------------------||

4.
                                    A5          Bb5   A5          BbC#5
                                   3/4
          PM--------------------|     PM|   PM|         PM|   PM|
  S S E E S S E S S E S S E S S E   E S S E S S E E   E S S E S S E E
|---------------------------------|-----------------|-----------------|
|---------------------------------|-----------------|-----------------|
|-7-6-7---------------------------|-----------------|-----------------|
|-------0-8-7-8-7-5-7-5-3-5-3-2-3-|-2-----2-----3---|-2-----2-----3-6-|
|---------------------------------|-0-0-0-0-0-0-1---|-0-0-0-0-0-0-1-4-|
|---------------------------------|---------------3-|-----------------|

A5          Bb5
    PM|   PM|       PM----|         PM--------------------------------------|
  E S S E S S E E   S S E E E E E   E S S E S S S S S S   E S S E S S S S S S
|-----------------|---------------|---------------------|----------------------|
|-----------------|---------------|---------------------|----------------------|
|-----------------|---------------|---------------------|-----------------1-1--|
|-2-----2-----3---|---------0-2-3-|-2-2-2-2-2-2-3-2-0-0-|-2-2-2-2-2-2-3-3------|
|-0-0-0-0-0-0-1---|-0-0-1-4-------|---------------------|----------------------|
|---------------3-|---------------|---------------------|----------------------|

PM------------------------------------------|
  E S S E S S S S S S   S S S S S S S S S S S S
|---------------------|-------------------------|
|---------------------|-------------------------|
|---------------------|---------1-1-2-2-4-4-5-5-|
|-2-2-2-2-2-2-3-2-0-0-|-2-2-3-3-----------------|
|---------------------|-------------------------|
|---------------------|-------------------------|

A5              Bb5   A5              BbC#5
    PM--|   PM--|         PM--|   PM--|
    |-3-|   |-3-|         |-3-|   |-3-|
  E S S S E S S S E E   E S S S E S S S E E
|---------------------|-----------------------|
|---------------------|-----------------------|
|---------------------|-----------------------|
|-2-------2-------3---|-2-------2-------3-6---|
|-0-0-0-0-0-0-0-0-1---|-0-0-0-0-0-0-0-0-1-4---|
|-------------------3-|-----------------------|

A5
    PM--|   PM--|       PM--|
    |-3-|   |-3-|
  E S S S E S S S E E   E E E  E   E   E
|---------------------|-------------------|
|---------------------|-------------------|
|---------------------|-------------------|
|-2-------2-----------|-------[0]-[2]-[3]-|
|-0-0-0-0-0-0-0-0-1---|-0-1-4-------------|
|-------------------3-|-------------------|

E5              F5 D5  E5              F5 G#5
    PM--|   PM--|          PM--|   PM--|
    |-3-|   |-3-|          |-3-|   |-3-|
  E S S S E S S S  E E   E S S S E S S S  E  E
|----------------------|-----------------------|
|----------------------|-----------------------|
|----------------------|-----------------------|
|-9-------9-------10-7-|-9-------9-------10-13-|
|-7-7-7-7-7-7-7-7--8-5-|-7-7-7-7-7-7-7-7--8-11-|
|----------------------|-----------------------|

E5              F5 D5  E5F5 G#5A5 B5 C5
    PM--|   PM--|
    |-3-|   |-3-|
  E S S S E S S S  E E   E  E  E  E  E  E
|----------------------|------------------|
|----------------------|------------------|
|----------------------|------------------|
|-9-------9-------10-7-|-9-10-13-14-16-17-|
|-7-7-7-7-7-7-7-7--8-5-|-7--8-11-12-14-15-|
|----------------------|------------------|

PM|      PM|      PM|     ~~  PM----------------------
   E  S  S  E  S  S  E  S  S    Q   S  S  S  S  S  S  S  S
|----------------------------|-----------------------------|
|----------------------------|-----------------------------|
|----------------------------|-----------------------------|
|----------15-------14-------|-12--------------------------|
|-12-12-12----12-12----12-12-|-----13-13-13-13-15-15-15-15-|
|----------------------------|-----------------------------|

----------------------------------|
   S  S  S  S  S  S  S  S  S  S  S  S
|-------------------------------------|
|-------------------------------------|
|-------------------------------------|
|-------------------------15-15-15-15-|
|-17-17-17-17-16-16-16-16-------------|
|-------------------------------------|

PM------|            PM------------|
               |--3--|
   S  S  S  S  S  S  S  S  S  S  S  S  S
|----------------------------------------|
|----------------------------------------|
|-------------14h15p14-------------------|
|-14-14-14-15----------15-14-12----------|
|-------------------------------15-13-12-|
|----------------------------------------|

PM|      PM|      PM|     ~~  PM------------------|
   E  S  S  E  S  S  E  S  S    Q   S  S  S  S  S  S  S  S
|----------------------------|------------------------------|
|----------------------------|------------------------------|
|----------------------------|------------------------------|
|----------------------------|------------------------------|
|----------15-------14-------|-12---------------------------|
|-12-12-12----12-12----12-12-|-----13-13-13-13-15-15-15-15--|

PM----------------------------------
   S  S  S  S  S  S  S  S  S  S  S  S
|-------------------------------------|
|-------------------------------------|
|-------------------------------------|
|-------------------------------------|
|-------------------------15-15-15-15-|
|-17-17-17-17-16-16-16-16-------------|

----------|            PM---------------------------------------|
               |--3--|                       |-3-|   |-3-|
   S  S  S  S  S  S  S  S  S  S  S  S  S   E S S S E S S S S S S S
|----------------------------------------|-------------------------|
|----------------------------------------|-------------------------|
|----------------------------------------|-------------------------|
|-------------14h15p14-------------------|-7-7-7-7-7-7-7-7-8-7-5-5-|
|-14-14-14-15----------15-14-12----------|-------------------------|
|-------------------------------15-13-12-|-------------------------|

PM-------------------------------------------------
    |-3-|   |-3-|             |-3-|   |-3-|
  E S S S E S S S S S S S   E S S S E S S S S S S S
|-------------------------|-------------------------|
|-------------------------|-------------------------|
|---------------------6-6-|-------------------------|
|-7-7-7-7-7-7-7-7-8-8-----|-7-7-7-7-7-7-7-7-8-7-5-5-|
|-------------------------|-------------------------|
|-------------------------|-------------------------|

------------------------|
  S S S S S S S S S S  S  S
|----------------------------|
|----------------------------|
|---------6-6-7-7-9-9-10-10--|
|-7-7-8-8--------------------|
|----------------------------|
|----------------------------|

~~~~~           ~~            ~~~~~
  Q  Q   S S  E   Q.   E  E E   Q  Q   S S  E   E  E E  E  E  E
|---------------|-------------|---------------|-----------------|
|---------------|-----------9-|---------------|------9-10-12-13-|
|-9--9--10p9----|-9----9-10---|-9--9--10p9----|-9-10------------|
|------------12-|-------------|------------12-|-----------------|
|---------------|-------------|---------------|-----------------|
|---------------|-------------|---------------|-----------------|

TP    TPTP    TP    TP TP    TP    TPTP   TP TP TP TP TP TP
   H     E E     H     E  E     H     E E    E  E  E  E  E  E
|------------|--------------|-------------|--------------------|
|-10----11-8-|-/10----11-14-|-/10----11-8-|-10-11-14-15-17-18--|
|------------|--------------|-------------|--------------------|
|------------|--------------|-------------|--------------------|
|------------|--------------|-------------|--------------------|
|------------|--------------|-------------|--------------------|

TP    TP TP   TP    TP TP    TP    TP TP   TP TP TP TP TP TP
    H     E  E    H     E  E     H     E  E    E  E  E  E  E  E
|--------------|-------------|--------------|-------16-17-19-20--|
|-/17----18-15-|-17----18-21-|-/17----18-15-|-17-18--------------|
|--------------|-------------|--------------|--------------------|
|--------------|-------------|--------------|--------------------|
|--------------|-------------|--------------|--------------------|
|--------------|-------------|--------------|--------------------|

The Dance Of Eternity
    Q=140
    Em
   4/4
    PM--------------------------------------------------------------|
    S S S S S S S S S S S S S S S S   S S S S S S S S S S S S S S S S
||----------------------------------|----------------------------------||
||o---------------------------------|---------------------------------o||
||----------------------------------|----------------------------------||
||----------------------------------|----------------------------------||
||o---------------------------------|---------------------------------o||
||--5-0-3-1-0-0-5-7-0-3-0-0-1-3-1-0-|-5-0-3-1-0-0-5-7-0-3-0-0-1-3-1-0--||

PM-----------------------------------------------------------------|
  S S S S S S S S S S S S S S S S   S S S S S S S S S S S S  S  S  S  S
|---------------------------------|-------------------------------------|
|---------------------------------|-------------------------------------|
|---------------------------------|-------------------------------------|
|---------------------------------|-------------------------------------|
|---------------------------------|-------------------------------------|
|-5-0-3-1-0-0-5-7-0-3-0-0-1-3-1-0-|-5-0-3-1-0-0-7-8-0-3-0-0-10-12-10-12-|

PM------------------------------------------------------------------|
  S S S S S S S S S S S S S S S S   S S S S S S S  S  S S  S  S S S S S
|---------------------------------|-------------------------------------|
|---------------------------------|-------------------------------------|
|---------------------------------|-------------------------------------|
|---------------------------------|-------------------------------------|
|---------------------------------|---------------------------------8-7-|
|-5-0-3-1-0-0-5-7-0-3-0-0-1-3-1-0-|-0-5-7-0-3-0-0-10-12-0-13-12-0-0-----|

Dm              Am                Dm              Am
    PM--------------------------------------------------------------|
    S S S S S S S S S S S S S S S S   S S S S S S S S S S S S S S S S
||----------------------------------|-----------------------------------||
||o---------------------------------|----------------------------------o||
||----------------------------------|-----------------------------------||
||----------------------------------|-----------------------------------||
||o-5-0-3-2-0-0-5-7-0-3-0-0-2-3-2-0-|-5-0-3-2-0-0-5-7-0-3-0-0-2-3-2-0--o||
||----------------------------------|-----------------------------------||

Em              Am                Dm            Am
  PM--------------------------------------------|
  S S S S S S S S S S S S S S S S   S S S S S S S S S S S S S S S S
|---------------------------------|---------------------------------|
|---------------------------------|---------------------------------|
|---------------------------------|---------------2-----------------|
|---------------------------------|-----------------5-2-5-2---2-----|
|-5-0-3-2-0-0-5-7-0-3-0-0-2-3-2-0-|-5-0-3-2-0-0-5-----------5---5-3-|
|---------------------------------|---------------------------------|

Dm              Am                Dm            Am
  PM--------------------------------------------|             PM--|
  S S S S S S S S S S S S S S S S   S S S S S S S S S S S S S S S S
|---------------------------------|---------------------------------|
|---------------------------------|---------------------------------|
|---------------------------------|---------------2-----------------|
|---------------------------------|-------------------5-------------|
|-5-0-3-2-0-0-5-7-0-3-0-0-2-3-2-0-|-5-0-3-2-0-0-5---------7---3-2-0-|
|---------------------------------|---------------------------------|

Dm              Am                Dm              Am
  PM--------------------------------------------------------------|
  S S S S S S S S S S S S S S S S   S S S S S S S S S S S S S S S S
|---------------------------------|---------------------------------|
|---------------------------------|---------------------------------|
|---------------------------------|---------------------------------|
|---------------------------------|---------------------------------|
|-5-0-3-2-0-0-5-7-0-3-0-0-2-3-2-0-|-7-0-5-3-0-0-7-8-0-5-0-0-3-5-3-0-|
|---------------------------------|---------------------------------|

Dm               Am                Dm                 Am
  PM------------------------------------------------------------------|
  S S S S S S S  S S S S S S S S S    S S S S S S  S  S S S S S S S S S
|----------------------------------|------------------------------------|
|----------------------------------|------------------------------------|
|----------------------------------|------------------------------------|
|----------------------------------|------------------------------------|
|-8-0-7-5-0-0-8-10-0-7-0-0-5-7-5-0-|-10-0-8-7-0-0-10-12-0-8-0-0-7-8-7-0-|
|----------------------------------|------------------------------------|

3/4                             2/4
   S S  S S S S  S  S S  S  S S   S  S  S S  S  S S S
|-------------------------------|---------------------|
|-------------------------------|---------------------|
|-------------------------------|---------------------|
|-------------------------------|---------------------|
|-12-0-10-8-0-0-12-14-0-12-10-0-|-0-14-15-0-14-12-0-0-|
|-------------------------------|---------------------|

3/8
   S  S S  S  S S   S  S  S S  S  S
|-----------------|------------------|
|-----------------|------------------|
|-----------------|------------------|
|-----------------|------------------|
|-15-17-0-15-14-0-|-0-17-19-0-17-15--|
|-----------------|------------------|

2/4                    12/16
  S  S  S S  S  S   S  S  S S  S  S S  S    S S  S  S S  S  S S  S  S S  S
|-----------------|----------------------|---------------------------------|
|-----------------|----------------------|---------------------------------|
|-----------------|----------------------|---------------------------------|
|-----------------|----------------------|---------------------------------|
|-0-19-20-0-19-17-|-0-20-22-0-20-19-0-22-|-24-0-22-24-0-22-24-0-22-24-0-22-|
|-----------------|----------------------|---------------------------------|

Em
 4/4                               5/4
  S S S S S S S S S S S S S S S S    S  S  S  S  S  H..         S
|---------------------------------|-------------17-16tr17----------|
|---------------------------6-5-6-|-13-12-12-13-----------------x/-|
|-------------------5-4-4-5-------|--------------------------------|
|-------------3-2-3---------------|--------------------------------|
|-----3-2-2-3---------------------|--------------------------------|
|-0-1-----------------------------|--------------------------------|

Paradigm Shift
    Q=200
    N.C.
   3/4
     S  S  S  S  S  S  S  S  S  S  S  S  3x
||---------------------------------------||
||o-17-18-17-15-17-15----15-17-15----15-o||
||--------------------18----------18-----||
||---------------------------------------||
||o-------------------------------------o||
||---------------------------------------||

4/4
   S  S  S  S  S  S  S  S  S  S  S  S  S  S  S  S    S  S  S  S  S  S  S  S H
|-15-13-------------------------------------------|------------------------------|
|-------15-13----------13-14-13-------------------|------------------------------|
|-------------15-12-15----------15-12-------15-12-|------------------------------|
|-------------------------------------15-12-------|-15-12-------12-10------------|
|-------------------------------------------------|-------15-13-------13-10------|
|-------------------------------------------------|------------------------------|

Q=180
  (Gm)
  S S S S S S S S S S S S S S S S   S S S S S S S S S S S S S S S S
|---------------------------------|---------------------------------|
|---------------------------------|---------------------------------|
|-3p0---3p0---3p0---3p0---3p0-5p0-|-3p0---3p0---3p0---3p0-----------|
|-----5-----5-----5-----5---------|-----5-----5-----5-----5-3p0-3p0-|
|---------------------------------|---------------------------------|
|---------------------------------|---------------------------------|

S S S S S S S S S S S S S S S S   S S S S S S S S S S S S S S S S
|---------------------------------|---------------------------------|
|---------------------------------|---------------------------------|
|-3p0---3p0---3p0---3p0---3p0-5p0-|-6p0-5p0-3p0---3p0-----0---------|
|-----5-----5-----5-----5---------|-------------5-----5p0---5p0-3p0-|
|---------------------------------|---------------------------------|
|---------------------------------|---------------------------------|

S S S S S S S S S S S S S S S S   S S S S S S S S S S S S S S S S
|---------------------------------|---------------------------------|
|---------------------------------|---------------------------------|
|-3p0---3p0---3p0---3p0---3p0-5p0-|-3p0---3p0---3p0---3p0-----------|
|-----5-----5-----5-----5---------|-----5-----5-----5-----5-3p0-3p0-|
|---------------------------------|---------------------------------|
|---------------------------------|---------------------------------|

S S S S S S S S S S S S S S S S   S S S S S S S S S S S S S S S S
|---------------------------------|---------------------------------|
|---------------------------------|-8---6---------------------------|
|-3p0---3p0---3p0---3p0---3p0-5p0-|---7---5-3p0-5p0-3p0-------------|
|-----5-----5-----5-----5---------|---------------------3p0---------|
|---------------------------------|-------------------------4-3-1---|
|---------------------------------|-------------------------------3-|

Q=140
  (F5G5           (F5G5    Bb5        (F5G5               C/E    F5
  ~~              ~~                  ~~
  E. S +H.        E. S +E  E +H       E. S +Q   +Q.   E   Q  E E Q  E E
|---------------|-------------------|-------------------|----------------|
|----3-(3)------|----3-(3)----------|----3-(3)--(3)-----|----------------|
|----0-(0)------|----0-(0)----------|----0-(0)--(0)-----|----0------0----|
|----0-(0)------|----0-(0)-3-(3)----|----0-(0)--(0)-----|----------------|
|---------------|----------1-(1)----|-------------------|-3----3-3----3--|
|-1--3-(3)------|-1--3-(3)----------|-1--3-(3)--(3)---1-|-0----0-1----1--|

(F5G5           (F5G5    C5/G
  ~~              ~~
  E. S +H.        E. S +E  E +H
|---------------|-------------------|
|----3-(3)------|----3-(3)-3-(3)----|
|----0-(0)------|----0-(0)-0-(0)----|
|----0-(0)------|----0-(0)----------|
|---------------|----------3-(3)----|
|-1--3-(3)------|-1--3-(3)----------|

F5         C5        Eb5        F5
  E. S +E  E E E E E   E. S +E  E  E E E  E
|--------------------|-----------------------|
|--------------------|-----------------------|
|----0-(0)-------0---|----0-(0)--------0-----|
|-3--------3-5-----5-|-8--------8-10-----10--|
|-1--------1-3-3---3-|-6--------6--8-8----8--|
|--------------------|-----------------------|

Q=180
    N.C.
     S  S  S  S  S  S  S  S  S  S  S  S  S  S  S  S
||--------------------------------------------------|
||o-17-18-17-15----15-17-15----15-17-18-17-15----15-|
||--------------18----------18----------------18----|
||--------------------------------------------------|
||o-------------------------------------------------|
||--------------------------------------------------|

S  S  S  S  S  S  S  S  S  S  S S  S S  S S
|----------------------------------------------|
|-17-15----15-17-18-17-15----15----------------|
|-------18----------------18----18p0-17p0-15p0-|
|----------------------------------------------|
|----------------------------------------------|
|----------------------------------------------|

S  S  S  S  S  S  S  S  S  S  S  S  S  S  S  S
|-------------------------------------------------|
|-17-18-17-15----15-17-15----15-17-18-17-15----15-|
|-------------18----------18----------------18----|
|-------------------------------------------------|
|-------------------------------------------------|
|-------------------------------------------------|

~~
   S  S  S  S  S  S  S  S  S S  S S  Q
|----------------------------------------||
|-17-15----15-17-18-17-15---------------o||
|-------18----------------18p0-17p0-15---||
|----------------------------------------||
|---------------------------------------o||
|----------------------------------------||

S  S  S  S  S  S  S  S  S  S  S  S  S  S  S  S
|-------------------------------------------------|
|-17-18-17-15----15-17-15----15-17-18-17-15----15-|
|-------------18----------18----------------18----|
|-------------------------------------------------|
|-------------------------------------------------|
|-------------------------------------------------|

S  S  S  S  S  S  S  S  S  S  S S  S S  S S
|----------------------------------------------|
|-17-15----15-17-18-17-15----15----------------|
|-------18----------------18----18p0-17p0-15p0-|
|----------------------------------------------|
|----------------------------------------------|
|----------------------------------------------|

S  S  S  S  S  S  S  S  S  S  S  S  S  S  S  S
|-------------------------------------------------|
|-17-18-17-15----15-17-15----15-17-18-17-15----15-|
|-------------18----------18----------------18----|
|-------------------------------------------------|
|-------------------------------------------------|
|-------------------------------------------------|

6/4
   S  S  S  S  S  S  S  S  S  S  S  S  S  S  S  S  S  S  S  S  S  S  S  S
|-------------------------17-18----17-18-20-17-18-15-17-14-15-17-----------|
|-17----------17-18-19-20-------20-------------------------------18-15-13--|
|----19-18-19---------------
 
 
Dream Theater - Instrumedely :: indexed at Ultimate Guitar.
Instrumedely tabs @ 911Tabs

Quick tip, so you can enjoy Instrumedely even more:

After the registration (which takes just 10 seconds, remember?) you will be able to use your profile - your very own piece of YourChords.com.

Show us your talent, perform Instrumedely!

Here you can post a video or audio performance. Tell me more ...
Where can we find your performance? Tell me more ...
Your comment:
Please, log in to post your performance.