Artists by letter: A B C D E F G H I J K L M N O P Q R S T U V W X Y Z 0-9

 
Forsaken
Great song.
Don't have the full song yet, but i plan to put it up soon.
Well anyways have fun with it.

/ = Slide up
\ = Slide down
* = Artificial harmonic
PM = palm mute
~ = this is when i bend the string down slightly when im playing that certain note
(That's how Petrucci does it)

e |-------------------------------------------------------|\
B |-------------------------------------------------------| \
G |-------------------------------------------------------|  \ 
D |--7/9---9----------------5-----------------------------|   \
A |--5/7---7---10~----9~----3--5*-------------------------|    \
E |------0---0-----0-----0--------------------------------|     \
                                                                 \
                                                             X4   \
                                                                 /
e |-------------------------------------------------------|     /
B |-------------------------------------------------------|    /
G |-------------------------------------------------------|   / 
D |--7/9-----9------0-------------------------------------|  /
A |--5/7-----7----0----------5----------------------------| / 
E |--------0----3------2-(2)-2----------------------------|/

Guitar II
           Comes in after playing first riff twice
e |-5-7-0-5-7-0-5-7-0-8-7-5-7-0-5-7-0-2-3-2---------------|
B |-------------------------------------------------------|
G |-------------------------------------------------------|
D |-------------------------------------------------------|X2
A |-------------------------------------------------------|
E |-------------------------------------------------------|



PM|---------------------------------------|
e |----------------------------------------------------|
B |-12-12-10-10-8-8-7-7-8--10-10-8-8-7-7-5-5-----------|
G |----------------------------------------------------|
D |----------------------------------------------------|
A |----------------------------------------------------|
E |----------------------------------------------------|



PM|------------------------------------------|
e |----------------------------------------------------|
B |-12-12-10-10-8-8-7-7-8--10-10-8-8-13-13-12-12-------|
G |----------------------------------------------------|
D |----------------------------------------------------|
A |----------------------------------------------------|
E |----------------------------------------------------|

e |----------------------------------------------------|
B |----------------------------------------------------|
G |----------------------------------------------------|
D |-2-X-5-4--------------------------------------------|
A |-0-X-3-2-2--7~----5~----9~----7~--5-----------------|
E |---------0-----0-----0-----0------3-----------------|

e |----------------------------------------------------|
B |----------------------------------------------------|
G |----------------------------------------------------|
D |-------------------------------0--------------------|
A |----7~-----5~-----10~------9~--0--------------------|
E |-0------0------0-------0----------------------------|
 
 
Dream Theater - Forsaken :: indexed at Ultimate Guitar.
Forsaken tabs @ 911Tabs

Quick tip, so you can enjoy Forsaken even more:

Try out the AutoScroller option ... It scrolls the page for you, so you can totally focus on nailing that solo. You can choose among different speeds using your mouse or your keyboard (keys 0, 1, 2 and 3).

Show us your talent, perform Forsaken!

Here you can post a video or audio performance. Tell me more ...
Where can we find your performance? Tell me more ...
Your comment:
Please, log in to post your performance.