Artists by letter: A B C D E F G H I J K L M N O P Q R S T U V W X Y Z 0-9

 
Sound Of Tragedy
-------------------------------------------------------------------------------
                            Sound of Tragedy- Doom of Babylon
-------------------------------------------------------------------------------
Tabbed by:
Email:

Tuning:Drop G#

e|---------------------------------------------------------------------------|
B|---------------------------------------------------------------------------|
G|---------------------------------------------------------------------------|
D|-----------------------------------------------------------------h---------|
A|-000-000-000-000-000-000--6-5-6-5~~~-111-111-111-111-111-111--8-6-8-6------|
E|-000-000-000-000-000-000-------------111-111-111-111-111-111---------------|
repeat untell end just hold open tell after gang yell
e|----------------------------------------------------------------------------|
B|----------------------------------------------------------------------------|
G|----------------------------------------------------------------------------|
D|----------------------------------------------------------------------------|
A|-000-000-000-000-000-000-1-0-1-0-111-111-111-111-111-111-3-1-3-0------------|
E|-000-000-000-000-000-000-1-0-1-0-111-111-111-111-111-111-3-1-3-0------------|

v This is riff 3
e|----------------------------------------------------------------------------|
B|----------h----h---h----h---------------------------------------------------|
G|---------8-11-5-8-8-11-7-10-------------------------------------------------|
D|-----------------------------------------h---h---h---h----------------------|
A|----------------------------------------6-9-3-6-6-9-5-8---------------------|
E|-0-0-0-0-------------------0-0-0-0------------------------------------------|
then repeat riff but the opens are tremolo

Ths is RIFF 4
e|----------------------------------------------------------------------------|
B|----------------------------------------------------------------------------|
G|----------------------------------------------------------------------------|
D|--------------------------------h----h----h---h-----------------------------|
A|----5-----6----3----6---5---5--7-10-7-10-6-9-6-9----------------------------|
E|-000--0000-0000-0000-000-000------------------------------------------------|
Repeat riff 4 times

e|----------------------------------------------------------------------------|
B|----------------------------------------------------------------------------|
G|----------------------------------------------------------------------------|
D|-0---------0--0-------------------------------------------------------------|
A|-0-0-0-0-0-0--0-0-0-0-0-0-4-3-0-3-2-1-2-1-----------------------------------|
E|-0-1-1-1-1-0--0-1-1-1-1-0-4-3-0-3-2-1-2-1-----------------------------------|
Repeat tell end of breakdown
Then repeat riff 3
e|----------------------------------------------------------------------------|
B|----------------------------------------------------------------------------|
G|-p---p---p---p------p---p---p---p-----p---p---p---p------p----p----p---p----|
D|7-0-7-0-7-0-7-0----8-0-8-0-8-0-8-0---5-0-5-0-5-0-5-0---10-0-10-0--8-0-8-0---|
A|----------------------------------------------------------------------------|
E|----------------------------------------------------------------------------|

e|---------------------------------------------------------------------------|
B|---------------------------------------------------------------------------|
G|---------------------------------------------------------------------------|
D|---------------------------------------------------------------------------|
A|---------------------------------------------------------------------------|
E|--000-00-00-00000---000-00-0-0---0----0000--00-00-0000--0000-00-00-000---0-|
    ... .. .. .....   ... .. . .   .    ....  .. .. ....  .... .. .. ...   .
e|---------------------------------------------------------------------------|
B|---------------------------------------------------------------------------|
G|---------------------------------------------------------------------------|
D|-0000000000000000000000000000000000000000000000000000000000----------------|
A|-0000000000000000000000000000000000000000000000000000000000----------------|
E|-0000000000000000000000000000000000000000000000000000000000----------------|
   ..........................................................

After Solo Repeat Riff 4 but listen for the stops.
And after riff 4 the fast breakdown is almost all the same notes as the first breakdown!
you can figure it out!

Then go back to riff 3.

e|---------------------------------------------------------------------------|
B|---------------------------------------------------------------------------|
G|---------------------------------------------------------------------------|
D|---------------------------------------------------------------------------|
A|---------------------------------------------------------------------------|
E|--0000-0000-0000-0000-11111111---------------------------------------------|
Repeat 4 times the do the same riff but in powercords and let then ring.

Then the outro of the song you go back to the intro!
e|---------------------------------------------------------------------------|
B|---------------------------------------------------------------------------|
G|---------------------------------------------------------------------------|
D|---------------------------------------------------------------------------|
A|---------------------------------------------------------------------------|
E|---------------------------------------------------------------------------|

************************************

| /   slide up
| \   slide down
| h   hammer-on
| p   pull-off
| ~   vibrato
| +   harmonic
| x   Mute note
| b   Bend
| pb  Pre-bend
| br  Bend release
| pbr Pre-bend release
| brb Bend release bend

************************************
 
 
Doom Of Babylon - Sound Of Tragedy :: indexed at Ultimate Guitar.
Sound Of Tragedy tabs @ 911Tabs
People who played Doom Of Babylon - Sound Of Tragedy also played these songs by Doom Of Babylon:
The Advocate Tab, Sound Of Tragedy Tab, Ashes Like Oxygen Tab, The Advocate, Ashes Like Oxygen

Quick tip, so you can enjoy Sound Of Tragedy even more:

Try out the AutoScroller option ... It scrolls the page for you, so you can totally focus on nailing that solo. You can choose among different speeds using your mouse or your keyboard (keys 0, 1, 2 and 3).

Show us your talent, perform Sound Of Tragedy!

Here you can post a video or audio performance. Tell me more ...
Where can we find your performance? Tell me more ...
Your comment:
Please, log in to post your performance.