Artists by letter: A B C D E F G H I J K L M N O P Q R S T U V W X Y Z 0-9

 
Diesel
DIESEL

Gtr I (A D G C F A D) - 'Guitar 1'
Gtr II (A D G C F A D) - 'Guitar 2'
Gtr III (A D G C F A D) - 'Solo'


  Q=177
 4/4
  Gtrs I, II               Gtr I
                           PM        PM          PM
  W          W          Q  E E +E  E E E   +E  E E E +E  E E E
|----------|----------|------------------|----------------------|
|----------|----------|------------------|----------------------|
|----------|----------|------------------|----------------------|
|----------|----------|------------------|----------------------|
|----------|----------|------------------|---------5-(5)-5------|
|----------|----------|-2----2-(2)-2---2-|-(2)-2-------------5--|
|----------|----------|-0--0-0-(0)-0-0-0-|-(0)-0-0-3-(3)-3-6----|


     PM        PM          PM
  Q  E E +E  E E E   +E  E E E +E  E E E
|------------------|---------------------|
|------------------|---------------------|
|------------------|---------------------|
|------------------|---------------------|
|------------------|---------5-(5)-5-----|
|-2----2-(2)-2---2-|-(2)-2-----------5---|
|-0--0-0-(0)-0-0-0-|-(0)-0-0-3-(3)-3---6-|
|
| Gtr II
| W                   H         Q    E E
|------------------|---------------------|
|------------------|---------------------|
|------------------|---------------------|
|------------------|---------------------|
|------------------|---------------------|
|------------------|-------------------x-|
|------------------|-------------------x-|


     PM        PM          PM
  Q  E E +E  E E E   +E  E E E +E  E E E
|------------------|---------------------|
|------------------|---------------------|
|------------------|---------------------|
|------------------|---------------------|
|------------------|---------5-(5)-5-----|
|-2----2-(2)-2---2-|-(2)-2---------------|
|-0--0-0-(0)-0-0-0-|-(0)-0-0-3-(3)-3-5-4-|
|
| Q  Q    H           W
|------------------|---------------------|
|------------------|---------------------|
|------------------|---------------------|
|------------------|---------------------|
|------------------|---------------------|
|-2----------------|---------------------|
|-0----------------|---------------------|


      PM        PM
  Q   E E +E  E E E   +E  E E E E E E E
|-------------------|-------------------|
|-------------------|-------------------|
|-------------------|-------------------|
|-------------------|-------------------|
|-------------------|-------------8-----|
|-5-----5-(5)-5---7-|-(7)-7-------------|
|-3---3-3-(3)-3-3-5-|-(5)-5-5-5-6---5-3-|
|
| E E Q    Q    E E    Q    E E E E E E
|-------------------|-------------------|
|-------------------|-------------------|
|-------------------|-------------------|
|-------------------|-------------------|
|-----------------7-|-------------8-----|
|-5---------------7-|-------------------|
|-3---------------5-|-------5-5-6---5-3-|


     PM        PM          PM
  Q  E E +E  E E E   +E  E E E +E  E E E
|------------------|---------------------|
|------------------|---------------------|
|------------------|---------------------|
|------------------|---------------------|
|------------------|---------5-(5)-5-----|
|-2----2-(2)-2---2-|-(2)-2-------------5-|
|-0--0-0-(0)-0-0-0-|-(0)-0-0-3-(3)-3-6---|
|
| W                   W
|------------------|---------------------|
|------------------|---------------------|
|------------------|---------------------|
|------------------|---------------------|
|------------------|---------------------|
|------------------|---------------------|
|------------------|---------------------|


     PM        PM          PM
  Q  E E +E  E E E   +E  E E E +E  E E E
|------------------|---------------------|
|------------------|---------------------|
|------------------|---------------------|
|------------------|---------------------|
|------------------|---------5-(5)-5-----|
|-2----2-(2)-2---2-|-(2)-2-----------5---|
|-0--0-0-(0)-0-0-0-|-(0)-0-0-3-(3)-3---6-|


     PM        PM          PM
  Q  E E +E  E E E   +E  E E E +E  E E E
|------------------|---------------------|
|------------------|---------------------|
|------------------|---------------------|
|------------------|---------------------|
|------------------|---------5-(5)-5-----|
|-2----2-(2)-2---2-|-(2)-2---------------|
|-0--0-0-(0)-0-0-0-|-(0)-0-0-3-(3)-3-5-4-|


     PM        PM
  Q  E E +E  E E E   +E  E E E E E E E
|------------------|-------------------|
|------------------|-------------------|
|------------------|-------------------|
|------------------|-------------------|
|------------------|-------------8-----|
|-5----5-(5)-5---7-|-(7)-7-------------|
|-3--3-3-(3)-3-3-5-|-(5)-5-5-5-6---5-3-|
|
| Gtr III
| W                   W
|------------------|-------------------|
|------------------|-------------------|
|------------------|-------------------|
|------------------|-------------------|
|------------------|-------------------|
|------------------|-------------------|
|------------------|-------------------|


      PM        PM           PM
  Q   E E +E  E E E   +E   E E E +E  E E E
|-------------------|----------------------|
|-------------------|----------------------|
|-------------------|----------------------|
|-------------------|----------------------|
|-------------------|----------5-(5)-5-----|
|-2-----2-(2)-2---2-|-(2)--2-------------5-|
|-0---0-0-(0)-0-0-0-|-(0)--0-0-3-(3)-3-6---|
|
| ~~                           PM    PM  PM
| H.            E E   +E   E E E  E  E E E
|-------------------|----------------------|
|-------------------|----------------------|
|-4-------------4-4-|-(4)----7----9----7---|
|-------------------|-----/9---9-----9---9-|
|-2-------------2-2-|-(2)------------------|
|-------------------|----------------------|
|-------------------|----------------------|


       PM         PM               PM
  Q    E  E +E  E E  E       +E  E E E +E  E E  E
|-------------------------|--------------------------|
|-------------------------|--------------------------|
|-------------------------|--------------------------|
|-------------------------|--------------------------|
|-------------------------|----------5-(5)-5---------|
|-2-------2-(2)-2----2----|--(2)-2-----------5-------|
|-0----0--0-(0)-0-0--0----|--(0)-0-0-3-(3)-3----6----|
|
| PM~~~~~~~~~~~~                     ~~~~~~
| E E +Q    +Q.      E       +Q.     E +Q    E  E
|-------------------------|--------------------------|
|-------------------10b12-|-(10)---------------10b12-|
|-------------------------|----------9-(9)-----------|
|-7-9-(9)---(9)-----------|--------------------------|
|-------------------------|--------------------------|
|-------------------------|--------------------------|
|-------------------------|--------------------------|


          PM                   PM
    Q     E   E    +E     E    E    E
|--------------------------------------|
|--------------------------------------|
|--------------------------------------|
|--------------------------------------|
|--------------------------------------|
|---2---------2----(2)----2---------2--|
|---0-----0---0----(0)----0----0----0--|
|
|      |-3--|    |--3---| |-3--|
|  +E  E  E E    E  E   E E  E E  S S
|------7-10p7-------7------------------|
|-(10)----------10-----10-7-10p7----7--|
|--------------------------------10----|
|--------------------------------------|
|--------------------------------------|
|--------------------------------------|
|--------------------------------------|


        PM                  PM       PM
  +E  E E E +E  E E E   Q   E E +E E E  E
|---------------------|-------------------|
|---------------------|-------------------|
|---------------------|-------------------|
|---------------------|-------------------|
|---------5-(5)-5-----|-------------------|
|-(2)-2---------------|-5-----5-(5)5----7-|
|-(0)-0-0-3-(3)-3-5-4-|-3---3-3-(3)3-3--5-|
|
|            ~~~
|  E  E E E  H          E E E E  E E E  E
|---------------------|-------------------|
|---------------------|-0---0----0---0----|
|-10--9-7----7--------|-2S4-4S7--7S9-9S11-|
|---------9-----------|-------------------|
|---------------------|-------------------|
|---------------------|-------------------|
|---------------------|-------------------|


                            Q=177
                                  PM--------|
  +E  E  E  E  E  E  E  E     Q   E E E E E E
|-------------------------|-------------------|
|-------------------------|-------------------|
|-------------------------|-------------------|
|-------------------------|-------------------|
|-----------------8-------|-------------------|
|-(7)-7-------------------|---2---2-2-2-2-2-2-|
|-(5)-5--5--5--6-----5--3-|---0---0-0-0-0-0-0-|
|
|                       ~~~~~~~~~
|  E  E  E  E  E  E  E  E    +Q   E H
|-------------------------|-------------------|
|--0-----0----18-17-------|-------------------|
|-11S14-14S16-------19-16-|-(16)--------------|
|-------------------------|-------------------|
|-------------------------|-------------------|
|-------------------------|-------------------|
|-------------------------|-------------------|


  PM--|                  PM----------------|                  PM--------|
  E E E E +E  E E E   Q  E E E E E E   E E E E +E  E E E   Q  E E E E E E
|-------------------|----------------|-------------------|----------------|
|-------------------|----------------|-------------------|----------------|
|-------------------|----------------|-------------------|----------------|
|-------------------|----------------|-------------------|----------------|
|-------------------|----------------|-------------------|----------------|
|-2-2-2-5-(5)-5---5-|-2--2-2-2-2-2-2-|-2-2-2-5-(5)-5-5---|-2--2-2-2-2-2-2-|
|-0-0-0-3-(3)-3-6---|-0--0-0-0-0-0-0-|-0-0-0-3-(3)-3---6-|-0--0-0-0-0-0-0-|


  PM--|                  PM        PM                           PM--------|
  E E E E +E  E E E   Q  E E +E  E E E   +E  E E E +Q   Q    Q  E E E E E E
|-------------------|------------------|-------------------|----------------|
|-------------------|------------------|-------------------|----------------|
|-------------------|------------------|-------------------|----------------|
|-------------------|------------------|-------------------|----------------|
|-------------------|------------------|-------------------|----------------|
|-2-2-2-5-(5)-5-----|-5----5-(5)-5---7-|-(7)-7-7-8-(8)--7--|-2--2-2-2-2-2-2-|
|-0-0-0-3-(3)-3-5-4-|-3--3-3-(3)-3-3-5-|-(5)-5-5-6-(6)--5--|-0--0-0-0-0-0-0-|


  PM--|                  PM----------------|                  PM--------|
  E E E E +E  E E E   Q  E E E E E E   E E E E +E  E E E   Q  E E E E E E
|-------------------|----------------|-------------------|----------------|
|-------------------|----------------|-------------------|----------------|
|-------------------|----------------|-------------------|----------------|
|-------------------|----------------|-------------------|----------------|
|-------------------|----------------|-------------------|----------------|
|-2-2-2-5-(5)-5---5-|-2--2-2-2-2-2-2-|-2-2-2-5-(5)-5-5---|-2--2-2-2-2-2-2-|
|-0-0-0-3-(3)-3-6---|-0--0-0-0-0-0-0-|-0-0-0-3-(3)-3---6-|-0--0-0-0-0-0-0-|


  PM--|                  PM        PM
  E E E E +E  E E E   Q  E E +E  E E E   +E  E E E +Q   Q    Q  E E +E  E E E
|-------------------|------------------|-------------------|------------------|
|-------------------|------------------|-------------------|------------------|
|-------------------|------------------|-------------------|------------------|
|-------------------|------------------|-------------------|-9--x-9-(9)-9-x-9-|
|-------------------|------------------|-------------------|-9--x-9-(9)-9-x-9-|
|-2-2-2-5-(5)-5-----|-5----5-(5)-5---7-|-(7)-7-7-8-(8)--7--|-7--7-7-(7)-7-7-7-|
|-0-0-0-3-(3)-3-5-4-|-3--3-3-(3)-3-3-5-|-(5)-5-5-6-(6)--5--|------------------|


  +E  E E E +E  E E E   Q  E E +E  E E E
|---------------------|------------------|
|---------------------|------------------|
|---------------------|------------------|
|-(9)-9-x-9-(9)-9-9-9-|-9--x-9-(9)-9-x-9-|
|-(9)-9-x-9-(9)-9-8-8-|-9--x-9-(9)-9-x-9-|
|-(7)-7-7-7-(7)-7-7-7-|-7--7-7-(7)-7-7-7-|
|---------------------|------------------|


  +E  E E E +E  E E E   Q  E E +E  E E E
|---------------------|------------------|
|---------------------|------------------|
|---------------------|------------------|
|-(9)-9-x-9-(9)-9-9-9-|-7--x-7-(7)-7-x-7-|
|-(9)-9-x-9-(9)-9-8-8-|-7--x-7-(7)-7-x-7-|
|-(7)-7-7-7-(7)-7-7-7-|-5--5-5-(5)-5-5-5-|
|---------------------|------------------|


  +E  E E E +E  E E E   Q  E E +E  E E E
|---------------------|------------------|
|---------------------|------------------|
|---------------------|------------------|
|-(7)-7-x-7-(7)-7-7-7-|-5--x-5-(5)-5-x-7-|
|-(7)-7-x-7-(7)-7-6-6-|-5--x-5-(5)-5-x-7-|
|-(5)-5-5-5-(5)-5-5-5-|-3--3-3-(3)-3-3-5-|
|---------------------|------------------|


  +E  E E E E E E E   Q  E E +E  E E E
|-------------------|------------------|
|-------------------|------------------|
|-------------------|------------------|
|-(7)---------------|-9--x-9-(9)-9-x-9-|
|-(7)---------------|-9--x-9-(9)-9-x-9-|
|-(5)---------------|-7--7-7-(7)-7-7-7-|
|-----0-5-4-0-3-2-0-|------------------|


  +E  E E E +E  E E E   Q  E E +E  E E E
|---------------------|------------------|
|---------------------|------------------|
|---------------------|------------------|
|-(9)-9-x-9-(9)-9-9-9-|-9--x-9-(9)-9-x-9-|
|-(9)-9-x-9-(9)-9-8-8-|-9--x-9-(9)-9-x-9-|
|-(7)-7-7-7-(7)-7-7-7-|-7--7-7-(7)-7-7-7-|
|---------------------|------------------|


  +E  E E E +E  E E E   Q  E E +E  E E E
|---------------------|------------------|
|---------------------|------------------|
|---------------------|------------------|
|-(9)-9-x-9-(9)-9-9-9-|-7--x-7-(7)-7-x-7-|
|-(9)-9-x-9-(9)-9-8-8-|-7--x-7-(7)-7-x-7-|
|-(7)-7-7-7-(7)-7-7-7-|-5--5-5-(5)-5-5-5-|
|---------------------|------------------|


  +E  E E E +E  E E E   Q  E E +E  E E E
|---------------------|------------------|
|---------------------|------------------|
|---------------------|------------------|
|-(7)-7-x-7-(7)-7-7-7-|-5--x-5-(5)-5-x-7-|
|-(7)-7-x-7-(7)-7-6-6-|-5--x-5-(5)-5-x-7-|
|-(5)-5-5-5-(5)-5-5-5-|-3--3-3-(3)-3-3-5-|
|---------------------|------------------|


 5/4                    4/4
                            PM--------|
  +E  E E E E E E E Q    Q  E E E E E E
|----------------------|----------------|
|----------------------|----------------|
|----------------------|----------------|
|-(7)------------------|----------------|
|-(7)------------------|----------------|
|-(5)-------------2----|-2--2-2-2-2-2-2-|
|-----0-5-4-0-3-2-0----|-0--0-0-0-0-0-0-|


  PM--|                  PM----------------|                  PM--------|
  E E E E +E  E E E   Q  E E E E E E   E E E E +E  E E E   Q  E E E E E E
|-------------------|----------------|-------------------|----------------|
|-------------------|----------------|-------------------|----------------|
|-------------------|----------------|-------------------|----------------|
|-------------------|----------------|-------------------|----------------|
|-------------------|----------------|-------------------|----------------|
|-2-2-2-5-(5)-5---5-|-2--2-2-2-2-2-2-|-2-2-2-5-(5)-5-5---|-2--2-2-2-2-2-2-|
|-0-0-0-3-(3)-3-6---|-0--0-0-0-0-0-0-|-0-0-0-3-(3)-3---6-|-0--0-0-0-0-0-0-|
|
| Gtr II
|                        PM----------------|
| W                   Q  E E E E E E   E E E E +E  E E E   W
|-------------------|----------------|-------------------|----------------|
|-------------------|----------------|-------------------|----------------|
|-------------------|----------------|-------------------|----------------|
|-------------------|----------------|-------------------|----------------|
|-------------------|----------------|-------------------|----------------|
|-------------------|-2--2-2---2---2-|---2-2-5-(5)-5-5---|----------------|
|-------------------|-0--0-0---0---0-|---0-0-3-(3)-3---6-|----------------|


  PM--|                  PM        PM                           PM--------|
  E E E E +E  E E E   Q  E E +E  E E E   +E  E E E +Q   Q    Q  E E E E E E
|-------------------|------------------|-------------------|----------------|
|-------------------|------------------|-------------------|----------------|
|-------------------|------------------|-------------------|----------------|
|-------------------|------------------|-------------------|----------------|
|-------------------|------------------|-------------------|----------------|
|-2-2-2-5-(5)-5-----|-5----5-(5)-5---7-|-(7)-7-7-8-(8)--7--|-2--2-2-2-2-2-2-|
|-0-0-0-3-(3)-3-5-4-|-3--3-3-(3)-3-3-5-|-(5)-5-5-6-(6)--5--|-0--0-0-0-0-0-0-|


  PM--|                  PM----------------|                  PM--------|
  E E E E +E  E E E   Q  E E E E E E   E E E E +E  E E E   Q  E E E E E E
|-------------------|----------------|-------------------|----------------|
|-------------------|----------------|-------------------|----------------|
|-------------------|----------------|-------------------|----------------|
|-------------------|----------------|-------------------|----------------|
|-------------------|----------------|-------------------|----------------|
|-2-2-2-5-(5)-5---5-|-2--2-2---2---2-|---2-2-5-(5)-5-5---|-2--2-2-2-2-2-2-|
|-0-0-0-3-(3)-3-6---|-0--0-0---0---0-|---0-0-3-(3)-3---6-|-0--0-0-0-0-0-0-|


  PM--|                  PM        PM
  E E E E +E  E E E   Q  E E +E  E E E   +E  E E E +Q   Q    Q  E E +E  E E E
|-------------------|------------------|-------------------|------------------|
|-------------------|------------------|-------------------|------------------|
|-------------------|------------------|-------------------|------------------|
|-------------------|------------------|-------------------|-9--x-9-(9)-9-x-9-|
|-------------------|------------------|-------------------|-9--x-9-(9)-9-x-9-|
|-2-2-2-5-(5)-5-----|-5----5-(5)-5---7-|-(7)-7-7-8-(8)--7--|-7--7-7-(7)-7-7-7-|
|-0-0-0-3-(3)-3-5-4-|-3--3-3-(3)-3-3-5-|-(5)-5-5-6-(6)--5--|------------------|


  +E  E E E +E  E E E   Q  E E +E  E E E
|---------------------|------------------|
|---------------------|------------------|
|---------------------|------------------|
|-(9)-9-x-9-(9)-9-9-9-|-9--x-9-(9)-9-x-9-|
|-(9)-9-x-9-(9)-9-8-8-|-9--x-9-(9)-9-x-9-|
|-(7)-7-7-7-(7)-7-7-7-|-7--7-7-(7)-7-7-7-|
|---------------------|------------------|


  +E  E E E +E  E E E   Q  E E +E  E E E
|---------------------|------------------|
|---------------------|------------------|
|---------------------|------------------|
|-(9)-9-x-9-(9)-9-9-9-|-7--x-7-(7)-7-x-7-|
|-(9)-9-x-9-(9)-9-8-8-|-7--x-7-(7)-7-x-7-|
|-(7)-7-7-7-(7)-7-7-7-|-5--5-5-(5)-5-5-5-|
|---------------------|------------------|


  +E  E E E +E  E E E   Q  E E +E  E E E
|---------------------|------------------|
|---------------------|------------------|
|---------------------|------------------|
|-(7)-7-x-7-(7)-7-7-7-|-5--x-5-(5)-5-x-7-|
|-(7)-7-x-7-(7)-7-6-6-|-5--x-5-(5)-5-x-7-|
|-(5)-5-5-5-(5)-5-5-5-|-3--3-3-(3)-3-3-5-|
|---------------------|------------------|
|
| Gtr II
|  W                    W
|---------------------|------------------|
|---------------------|------------------|
|---------------------|------------------|
|---------------------|------------------|
|---------------------|------------------|
|---------------------|------------------|
|---------------------|------------------|


  +E  E E E E E E E   Q  E E +E  E E E
|-------------------|------------------|
|-------------------|------------------|
|-------------------|------------------|
|-(7)---------------|-9--x-9-(9)-9-x-9-|
|-(7)---------------|-9--x-9-(9)-9-x-9-|
|-(5)---------------|-7--7-7-(7)-7-7-7-|
|-----0-5-4-0-3-2-0-|------------------|
|
|  W                  Q  E E  E  E E E
|-------------------|------------------|
|-------------------|------------------|
|-------------------|-4--4-4--4--4-4-4-|
|-------------------|------------------|
|-------------------|-2--2-2--2--2-2-2-|
|-------------------|------------------|
|-------------------|------------------|


  +E  E E E +E  E E E   Q   E E +E  E E E
|---------------------|-------------------|
|---------------------|-------------------|
|---------------------|-------------------|
|-(9)-9-x-9-(9)-9-9-9-|-9---x-9-(9)-9-x-9-|
|-(9)-9-x-9-(9)-9-8-8-|-9---x-9-(9)-9-x-9-|
|-(7)-7-7-7-(7)-7-7-7-|-7---7-7-(7)-7-7-7-|
|---------------------|-------------------|
|
|  E  E E E  E  E E E   E E E E  E  E E E
|---------------------|-------------------|
|---------------------|-------------------|
|--4--4-4-7--7--7-7-7-|-7p4-4-4--4--4-4-4-|
|---------------------|-------------------|
|--2--2-2-5--5--5-5-5-|-5p2-2-2--2--2-2-2-|
|---------------------|-------------------|
|---------------------|-------------------|


  +E  E E E +E  E E E    Q   E E +E  E E E
|---------------------|--------------------|
|---------------------|--------------------|
|---------------------|--------------------|
|-(9)-9-x-9-(9)-9-9-9-|--7---x-7-(7)-7-x-7-|
|-(9)-9-x-9-(9)-9-8-8-|--7---x-7-(7)-7-x-7-|
|-(7)-7-7-7-(7)-7-7-7-|--5---5-5-(5)-5-5-5-|
|---------------------|--------------------|
|
|  E  E E E  E  E E E    E E E E  E  E E E
|---------------------|--------------------|
|---------------------|--------------------|
|--4--4-4-7--7--7-7-7-|-10p9-x-9p=7--x-7p6-|
|---------------------|------x-------x-----|
|--2--2-2-5--5--5-5-5-|--8p7-x-7p=5--x-5p4-|
|---------------------|--------------------|
|---------------------|--------------------|


                                    PM|
  +E  E E E +E E E E   Q  E E +E  E E E   Q.   E +Q    E  E
|--------------------|------------------|----------------------|
|--------------------|------------------|----------------------|
|--------------------|------------------|----------------------|
|-(7)-7-x-7-(7)7-7-7-|-5--x-5-(5)-5-----|----------------------|
|-(7)-7-x-7-(7)7-6-6-|-5--x-5-(5)-5-----|----------------------|
|-(5)-5-5-5-(5)5-5-5-|-3--3-3-(3)-3-2-2-|-4----5-(5)---6--7----|
|--------------------|--------------0-0-|-2----3-(3)---4--5----|
|
|                                   PM|
|  E  E E E  E E E E   Q  E E +E  E E E   Q.   E +Q    Q
|--------------------|------------------|----------------------|
|--------------------|-8--x-8-(8)-8-----|----------------------|
|--x--6h7-x--7h9-9-9-|-7--x-7-(7)-7-----|----------------------|
|--x------x----------|-5--x-5-(5)-5-----|----------------------|
|--x--4h5-x--5h7-7-7-|-5--5-5-(5)-5-----|----------------------|
|--------------------|--------------2-2-|-4----5-(5)-----------|
|--------------------|--------------0-0-|-2----3-(3)-----------|
|
| Gtr III
|  W                   W                  H       Q    E  E
|--------------------|------------------|-------------12-------|
|--------------------|------------------|-------------12-------|
|--------------------|------------------|----------------14b16-|
|--------------------|------------------|----------------------|
|--------------------|------------------|----------------------|
|--------------------|------------------|----------------------|
|--------------------|------------------|----------------------|


                PM---|           PM                            PM----|
   +Q      E    E     E    E     E    E      +Q            E   E     E E Q
|------------------------------------------|-----------------------------------|
|------------------------------------------|-----------------------------------|
|------------------------------------------|-----------------------------------|
|----------5---------------5----------7----|-(7)-----------5-----------5-------|
|----------5---------------5----------7----|-(7)-----------5-----------5-7-----|
|--(7)----------0-----0----------0---------|-------------------0-----0---7-----|
|--(5)-------------------------------------|-----------------------------------|
|
| Gtr III
|                                                                 ~~~
|          |---3---|  |---3---|  |---3---|    |--3---|  |--3---|
|  +E   E  E  E    E  E  E    E  E  E    E    E   E  E  E  E   E  Q.       S S
|--------------------12------12-15p12------|-12----------------------------0-0-|
|------12-15p12---15----15--------------15-|-----15-12-15p12-------------------|
|-(14)-------------------------------------|------------------15-14------------|
|------------------------------------------|-----------------------------------|
|------------------------------------------|-----------------------------------|
|------------------------------------------|-----------------------------------|
|------------------------------------------|-----------------------------------|


   PM--|        PM--|        PM                   PM-|
   E   E    E   E    E   E   E   E     +Q      E  E   E  E   Q
|------------------------------------|----------------------------|
|------------------------------------|----------------------------|
|------------------------------------|----------------------------|
|-----------5------------5-------7---|-(7)-----5---------5--------|
|-----------5------------5-------7---|-(7)-----5---------5---7----|
|--0---0--------0----0-------0-------|------------0---0------7----|
|------------------------------------|----------------------------|
|
|                                       TP     TP     TP     TP
|  S S S S  S S S S  S S S S S S S S    Q      Q      Q      Q
|-12p0-0-0-11p0-0-0-10p0-0-0-9p0-0-0-|-12-----14-----15-----17----|
|------------------------------------|----------------------------|
|------------------------------------|----------------------------|
|------------------------------------|----------------------------|
|------------------------------------|----------------------------|
|------------------------------------|----------------------------|
|------------------------------------|----------------------------|


   PM---|   PM|         PM                  PM---|
   E    E E E  E  E     E  E   +Q      E    E     E E   Q
|----------------------------|-------------------------------|
|----------------------------|-------------------------------|
|----------------------------|-------------------------------|
|---------5-------5--------7-|-(7)-----5------------5--------|
|---------5-------5--------7-|-(7)-----5------------5---7----|
|--0----0---0--0--------0----|--------------0-----0-----7----|
|----------------------------|-------------------------------|
|
|  ~~~~~                                          ~~
|                                      |---3---|
|  H           E  S  S  E  E    E   E  E  E    E  Q     E  E
|-17b19-------17-17-15-17----|-15----------------------------|
|-------------------------17-|-----17---------------------12-|
|----------------------------|--------12-14---12------/14----|
|----------------------------|-------------------14----------|
|----------------------------|-------------------------------|
|----------------------------|-------------------------------|
|----------------------------|-------------------------------|


   PM---|         PM---|         PM
   E     E  E     E     E     E  E     E
|-------------------------------------------|
|-------------------------------------------|
|-------------------------------------------|
|-----------5-----------------5--------7----|
|-----------5-----------------5--------7----|
|--0-----0--------0-----0--------0----------|
|-------------------------------------------|
|
|  E     E  S  S  S  S  E     E  S  S  S  S
|-------12-------------------12-------------|
|-15b17----15p12----12-15b17----15p12----12-|
|----------------14-------------------14----|
|-------------------------------------------|
|-------------------------------------------|
|-------------------------------------------|
|-------------------------------------------|


                  PM---|
  +Q        E     E     E    E Q      E     E E E Q  E E
|---------------------------------|----------------------|
|---------------------------------|----------------------|
|---------------------------------|----------------------|
|-(7)-------5----------------5----|----------------------|
|-(7)-------5----------------5-7--|---7------------------|
|-----------------0-----0------7--|---5---------8----5-2-|
|---------------------------------|-------------6----3-0-|
|
|                                     ~~~~~~~
|  E     E  S  S  S  S  H            +H           H
|-------12------------------------|----------------------|
|-15b17----15p12----12-15b17------|-(15)b17--------------|
|----------------14---------------|----------------------|
|---------------------------------|----------------------|
|---------------------------------|----------------------|
|---------------------------------|----------------------|
|---------------------------------|----------------------|


       PM--------|
  +Q   E E E E E E   E E E E Q  E E
|------------------|----------------|
|------------------|----------------|
|------------------|----------------|
|------------------|----------------|
|------------------|-7--------------|
|-(2)--2-2-2-2-2-2-|-5-----8----5-2-|
|-(0)--0-0-0-0-0-0-|-------6----3-0-|
|
|  W                 W
|------------------|----------------|
|------------------|----------------|
|------------------|----------------|
|------------------|----------------|
|------------------|----------------|
|------------------|----------------|
|------------------|----------------|


                                                              Gtrs I, II
       PM----------------|                  PM----------------------|
  +Q   E E E E E E   E E E E +E  E E E   Q  E E E E E E   E E E E E E E E
|------------------|-------------------|----------------|-----------------|
|------------------|-------------------|----------------|-----------------|
|------------------|-------------------|----------------|-------------x-x-|
|------------------|-------------------|----------------|-------------x-x-|
|------------------|-------------------|----------------|-------------x-x-|
|-(2)--2-2-2-2-2-2-|-2-2-2-5-(5)-5---5-|-2--2-2-2-2-2-2-|-2-2-2-2-2-2-x-x-|
|-(0)--0-0-0-0-0-0-|-0-0-0-3-(3)-3-6---|-0--0-0-0-0-0-0-|-0-0-0-0-0-0-0-0-|


  Gtr I
  Q  E E +E  E E E   +E  E E E +E  E E E
|------------------|---------------------|
|------------------|---------------------|
|------------------|---------------------|
|-9--x-9-(9)-9-x-9-|-(9)-9-x-9-(9)-9-9-9-|
|-9--x-9-(9)-9-x-9-|-(9)-9-x-9-(9)-9-8-8-|
|-7--7-7-(7)-7-7-7-|-(7)-7-7-7-(7)-7-7-7-|
|------------------|---------------------|


  Q  E E +E  E E E   +E  E E E +E  E E E
|------------------|---------------------|
|------------------|---------------------|
|------------------|---------------------|
|-9--x-9-(9)-9-x-9-|-(9)-9-x-9-(9)-9-9-9-|
|-9--x-9-(9)-9-x-9-|-(9)-9-x-9-(9)-9-8-8-|
|-7--7-7-(7)-7-7-7-|-(7)-7-7-7-(7)-7-7-7-|
|------------------|---------------------|


  Q  E E +E  E E E   +E  E E E +E  E E E
|------------------|---------------------|
|------------------|---------------------|
|------------------|---------------------|
|-7--x-7-(7)-7-x-7-|-(7)-7-x-7-(7)-7-7-7-|
|-7--x-7-(7)-7-x-7-|-(7)-7-x-7-(7)-7-6-6-|
|-5--5-5-(5)-5-5-5-|-(5)-5-5-5-(5)-5-5-5-|
|------------------|---------------------|


  Q  E E +E  E E E   +E  E E E E E E E
|------------------|-------------------|
|------------------|-------------------|
|------------------|-------------------|
|-5--x-5-(5)-5-x-7-|-(7)---------------|
|-5--x-5-(5)-5-x-7-|-(7)---------------|
|-3--3-3-(3)-3-3-5-|-(5)---------------|
|------------------|-----0-5-4-0-3-2-0-|


  Q  E E +E  E E E   +E  E E E +E  E E E
|------------------|---------------------|
|------------------|---------------------|
|------------------|---------------------|
|-9--x-9-(9)-9-x-9-|-(9)-9-x-9-(9)-9-9-9-|
|-9--x-9-(9)-9-x-9-|-(9)-9-x-9-(9)-9-8-8-|
|-7--7-7-(7)-7-7-7-|-(7)-7-7-7-(7)-7-7-7-|
|------------------|---------------------|
|
| Gtr II
| Q  E E  E  E E E    E  E E E  E  E E E
|------------------|---------------------|
|------------------|---------------------|
|-4--4-4--4--4-4-4-|--4--4-4-7--7--7-7-7-|
|------------------|---------------------|
|-2--2-2--2--2-2-2-|--2--2-2-5--5--5-5-5-|
|------------------|---------------------|
|------------------|---------------------|


  Q   E E +E  E E E   +E  E E E +E  E E E
|-------------------|---------------------|
|-------------------|---------------------|
|-------------------|---------------------|
|-9---x-9-(9)-9-x-9-|-(9)-9-x-9-(9)-9-9-9-|
|-9---x-9-(9)-9-x-9-|-(9)-9-x-9-(9)-9-8-8-|
|-7---7-7-(7)-7-7-7-|-(7)-7-7-7-(7)-7-7-7-|
|-------------------|---------------------|
|
| E E E E  E  E E E    E  E E E  E  E E E
|-------------------|---------------------|
|-------------------|---------------------|
|-7p4-4-4--4--4-4-4-|--4--4-4-7--7--7-7-7-|
|-------------------|---------------------|
|-5p2-2-2--2--2-2-2-|--2--2-2-5--5--5-5-5-|
|-------------------|---------------------|
|-------------------|---------------------|


   Q   E E +E  E E E   +E  E E E +E E E E
|--------------------|--------------------|
|--------------------|--------------------|
|--------------------|--------------------|
|--7---x-7-(7)-7-x-7-|-(7)-7-x-7-(7)7-7-7-|
|--7---x-7-(7)-7-x-7-|-(7)-7-x-7-(7)7-6-6-|
|--5---5-5-(5)-5-5-5-|-(5)-5-5-5-(5)5-5-5-|
|--------------------|--------------------|
|
|  E E E E  E  E E E    E  E E E  E E E E
|--------------------|--------------------|
|--------------------|--------------------|
|-10p9-x-9p=7--x-7p6-|--x--6h7-x--7h9-9-9-|
|------x-------x-----|--x------x----------|
|--8p7-x-7p=5--x-5p4-|--x--4h5-x--5h7-7-7-|
|--------------------|--------------------|
|--------------------|--------------------|


  Q  E E +E  E E  E    +E  E  E  E E  E E  E
|-------------------|------------------------|
|-------------------|------------------------|
|-------------------|------------------------|
|-5--x-5-(5)-5-x--7-|--(7)-------------------|
|-5--x-5-(5)-5-x--7-|--(7)-------------------|
|-3--3-3-(3)-3-3--5-|--(5)-------------------|
|-------------------|------0--5--4-0--3-2--0-|
|
| Q  E E +E  E E  E    +E  E  E  E E  E E  E
|-------------------|------------------------|
|-8--x-8-(8)-8-x-10-|-(10)-------------------|
|-7--x-7-(7)-7-x--9-|--(9)-------------------|
|-5--x-5-(5)-5-x--7-|--(7)-------------------|
|-5--5-5-(5)-5-5--7-|--(7)-------------------|
|-------------------|------------------------|
|-------------------|------0-12-11-0-10-9-12-|


     PM      PM                           PM      PM
  Q  E E E E E E   E E E E +E  E E E   Q  E E E E E E   E E E E +E  E E E
|----------------|-------------------|----------------|-------------------|
|----------------|-------------------|----------------|-------------------|
|----------------|-------------------|----------------|-------------------|
|----------------|-------------------|----------------|-------------------|
|----------------|-------------------|----------------|-------------------|
|----------------|-----------------5-|----------------|---------------5---|
|-0--0-0-0-0-0-0-|-0-0-0-3-(3)-3-6---|-0--0-0-0-0-0-0-|-0-0-0-3-(3)-3---6-|


     PM      PM                           PM        PM
  Q  E E E E E E   E E E E +E  E E E   Q  E E +E  E E E   +E  E E E E E E E
|----------------|-------------------|------------------|-------------------|
|----------------|-------------------|------------------|-------------------|
|----------------|-------------------|------------------|-------------------|
|----------------|-------------------|------------------|-------------------|
|----------------|-------------------|------------------|-------------8-----|
|----------------|-------------------|-5----5-(5)-5---7-|-(7)-7-------------|
|-0--0-0-0-0-0-0-|-0-0-0-3-(3)-3-5-4-|-3--3-3-(3)-3-3-5-|-(5)-5-5-5-6---5-3-|


     PM      PM                           PM      PM
  Q  E E E E E E   E E E E +E  E E E   Q  E E E E E E   E E E E +E  E E E
|----------------|-------------------|----------------|-------------------|
|----------------|-------------------|----------------|-------------------|
|----------------|-------------------|----------------|-------------------|
|----------------|-------------------|----------------|-------------------|
|----------------|-------------------|----------------|-------------------|
|----------------|-----------------5-|----------------|---------------5---|
|-0--0-0-0-0-0-0-|-0-0-0-3-(3)-3-6---|-0--0-0-0-0-0-0-|-0-0-0-3-(3)-3---6-|


     PM      PM                           PM        PM
  Q  E E E E E E   E E E E +E  E E E   Q  E E +E  E E E   +E  E E E E E E E
|----------------|-------------------|------------------|-------------------|
|----------------|-------------------|------------------|-------------------|
|----------------|-------------------|------------------|-------------------|
|----------------|-------------------|------------------|-------------------|
|----------------|-------------------|------------------|-------------8-----|
|----------------|-------------------|-5----5-(5)-5---7-|-(7)-7-------------|
|-0--0-0-0-0-0-0-|-0-0-0-3-(3)-3-5-4-|-3--3-3-(3)-3-3-5-|-(5)-5-5-5-6---5-3-|


  Q.   E +Q   E E   +Q   Q  H
|-----------------|--------------*|
|-----------------|--------------*|
|-----------------|--------------*|
|-----------------|--------------*|
|-7---------------|--------------*|
|-5----8-(8)--5-2-|-(2)----------*|
|------6-(6)--3-0-|-(0)----------*|


--------------------------------------------------------------------------------


Duration Legend
---------------
W - whole; H - half; Q - quarter; E - 8th; S - 16th; T - 32nd; X - 64th; a - acciaccatura
+ - note tied to previous; . - note dotted; .. - note double dotted
Uncapitalized letters represent notes that are staccato (1/2 duration)
Irregular groupings are notated above the duration line
Duration letters will always appear directly above the note/fret number it represents the
duration for.  Duration letters with no fret number below them represent rests.  Multi-
bar rests are notated in the form Wxn, where n is the number of bars to rest for.  Low
melody durations appear below the staff

Tablature Legend
----------------
 h   - hammer-on
 p   - pull-off
 B   - bend
 pb  - pre-bend
 r   - bend release (if no number after the r, then release immediately)
 /\  - slide into or out of (from/to "nowhere")
 s   - legato slide
 S   - shift slide
 - natural harmonic
[n]  - artificial harmonic
n(n) - tapped harmonic
 ~   - vibrato
 tr  - trill
 T   - tap
 TP  - trem. picking
 PM  - palm muting
\n/  - tremolo bar dip; n = amount to dip
 \n  - tremolo bar down
 n/  - tremolo bar up
/n\  - tremolo bar inverted dip
 =   - hold bend; also acts as connecting device for hammers/pulls
  - volume swell (louder/softer)
 x   - on rhythm slash represents muted slash
 o   - on rhythm slash represents single note slash

Misc Legend
-----------
 |  - bar
||  - double bar
||o - repeat start
o|| - repeat end
*|  - double bar [ending]
 :  - bar (freetime)
 $  - Segno
 &  - Coda

 
 
Dogma - Diesel :: indexed at Ultimate Guitar.
Diesel tabs @ 911Tabs
People who played Dogma - Diesel also played these songs by Dogma:
Runaway Chords, Toro Chords, Como Seria Chords, Viaje Astral Chords, Soldados De Rutina Chords, Diesel Tab

Quick tip, so you can enjoy Diesel even more:

Try out the AutoScroller option ... It scrolls the page for you, so you can totally focus on nailing that solo. You can choose among different speeds using your mouse or your keyboard (keys 0, 1, 2 and 3).

Show us your talent, perform Diesel!

Here you can post a video or audio performance. Tell me more ...
Where can we find your performance? Tell me more ...
Your comment:
Please, log in to post your performance.