Artists by letter: A B C D E F G H I J K L M N O P Q R S T U V W X Y Z 0-9

Override Of The Overture (ver 2) - Dismember


 
Override Of The Overture
D I S M E M B E R  -  Override Of The Overture
From the Album Like An Everflowing Stream
Copyright 1991 Nuclear Blast
Transcribed by Lordsabbathan
Tuning: C Standard


[Riff A1]                                           x 1
C |---------------------------------------------------|
G |---------------------------------------------------|
D#|---------------------------------------------------|GTR 1
A#|------9"-10"-9"-12"-10"-9"-10"-9"-----9"-8"----7"--|
F |--7"------------------------------10"-------9"-----|
C |---------------------------------------------------|

C |---------------------------------------------------|
G |---------------------------------------------------|
D#|*-------------------------------------------------*|GTR 2
A#|*----------------------------------------------7--*|
F |-----------------------------------------------7---|
C |-----------------------------------------------5---|

[Riff A1 Cont'd]                                    x 1
C |---------------------------------------------------|
G |---------------------------------------------------|
D#|---------------------------------------------------|GTR 1
A#|-----9"-10"-9"-12"-10"-9"-10"-9"-----9"-8"----7"---|
F |--7"------------------------------10"-------9"-----|
C |---------------------------------------------------|

C |---------------------------------------------------|
G |---------------------------------------------------|
D#|---------------------------------------------------|GTR 2
A#|----------------------------------5---9”-8”----7”--|
F |----------------------------------5---------9”-----|
C |----------------------------------3----------------|

[Riff A2]                                           x 2
C |---------------------------------------------------|
G |---------------------------------------------------|
D#|*-------------------------------------------------*|GTR 1
A#|*----7"-8"-7"-10"-8"-7"-8"-7"----7"-6"----5"------*|
F |--5"--------------------------8"-------7"----------|
C |---------------------------------------------------|
                                                    x 2
C |---------------------------------------------------|
G |---------------------------------------------------|
D#|*-------------------------------------------------*|GTR 2
A#|*----7"-8"-7"-10"-8"-7"-8"-7"----7"-6"----5"------*|
F |--5"--------------------------8"-------7"----------|
C |---------------------------------------------------|

Play Riff A1 2 times (GTR 2 plays same as GTR 1)

                     _______________ __________________x 1
[Riff B]            |1              |2.                  |                 
C |-----------------|---------------|--------------------|
G |-----------------|---------------|--------------------|
D#|*----------------|---------------|-------------------*|GTR 1
A#|*----------------|---------------|---------7\6-------*|
F |--2------2-----2-|-----3/6---3\8-|-----7-8-----7\-----|
C |--0-000--0--00-0-|-000-1/4-0-1\6-|-000----------------]
       ...     ..     ...     .       ...

                     ________________ ___________________X 1
                    |1.              |2.                   |                 
C |-----------------|----------------|---------------------|
G |-----------------|----------------|---------------------|
D#|*----------------|----------------|--------------------*|GTR 2
A#|*----------------|----------------|----------7\6-------*|
F |--2--------------|----3/6---3/8---|------7-8-----7\-----|
C |--0--------------|--0-1/4-0-1/6---|---------------------]
                       .     . 
      
                     _______________ _________________X 4
[Riff B Cont'd]     |1.             |2.(see note)        |                 
C |-----------------|---------------|--------------------|
G |-----------------|---------------|--------------------|
D#|*----------------|---------------|-------------------*|BOTH GTRS
A#|*----------------|---------------|---------7\6-------*|
F |--2------2-----2-|-----3/6---3/8-|-----7-8-----7\-----|
C |--0-000--0--00-0-|-000-1/4-0-1/6-|-000----------------|
       ...     ..     ...     .       ... 

[NOTE: On 2nd time last bar is played like this]                 
C |--------------------|
G |--------------------|
D#|--------------------|GTR 2
A#|---------7\6--------|
F |-----7-8-----8-7-8\-|
C |-000----------------]
    ... 

[Riff C]
C |---------------------|----------------|----------------------|
G |---------------------|----------------|----------------------|
D#|---------------------|-4”--2”---------|----------------------|GTR 1
A#|-9--(9)----12-11---9-|---------5"--4"-|-5--(5)--9--7--5---7--|
F |-7--(7)----10--9---7-|----------------|-3--(3)--7--5--3---5--|
C |-7--(7)----10--9---7-|----------------|-3--(3)--7--5--3---5--|
              .                                    .

C |---------------------|----------------|----------------------|
G |---------------------|----------------|----------------------|
D#|---------------------|-4”--2”---------|----------------------|GTR 2
A#|-9--(9)----12-11---9-|---------5"--4"-|-5--(5)--9--7--5---7--|
F |-7--(7)----10--9---7-|----------------|-3--(3)--7--5--3---5--|
C |-7--(7)----10--9---7-|----------------|-3--(3)--7--5--3---5--|
              .                                    .

[Riff C Cont'd]
C |---------------------|---------------|--------------|
G |---------------------|---------------|--------------|
D#|---------------------|-4--2----------|--------------|GTR 1
A#|-9--(9)----12-11---9-|-------5-4_5_4-|-5--(5)--9--7-|
F |-7--(7)----10--9---7-|----------h-p--|-3--(3)--9--5-|
C |-7--(7)----10--9---7-|---------------|-3--(3)--7--5-|
              .

C |---------------------|---------------|--------------|
G |---------------------|---------------|--------------|
D#|---------------------|-4--2----------|--------------|GTR 2
A#|-9--(9)----12-11---9-|-------5-4_5_4-|-5--(5)--9--7-|
F |-7--(7)----10--9---7-|----------h-p--|-3--(3)--9--5-|
C |-7--(7)----10--9---7-|---------------|-3--(3)--7--5-|
              .

[Riff D]
C |------------------------------|
G |------------------------------|
D#|------------------------------|GTR 1
A#|------------------------------|
F |-2--2--2--2--2--2--2--2-------|
C |-0--0--0--0--0--0--0--0--0"-x\|

C |------------------------------|
G |------------------------------|
D#|------------------------------|GTR 2
A#|------------------------------|
F |-2--2--2--2--2--2--2--2-------|
C |-0--0--0--0--0--0--0--0--0"---|


                   ________ _______
[Riff E}          |1.      |2.     |
C |---------------|--------|-------|
G |---------------|--------|-------|
D#|*--------------|--------|------*|GTR 1
A#|*--------------|-0-2-3--|------*|
F |------2_3-2----|-----h--|--3/6--|
C |--0"---h----3"-|--------|--1/4--|

                   ________ _______
                  |1.      |2.     |
C |---------------|--------|-------|
G |---------------|--------|-------|
D#|*--------------|--------|------*|GTR 2
A#|*--------------|-0-2-3--|------*|
F |------2_3-2----|-----h--|--3/6--|
C |--0"---h----3"-|--------|--1/4--|


[Riff F]                                         x 1
C |------------------------------------------------|
G |------------------------------------------------|
D#|*----------------------------------------------*|GTR 1
A#|*----------------------------------------------*|
F |--2------2”----2”---5/10-8-88-8-88-3-33-3---3\8-|
C |--0-0"-3_0”--3_0”_3-3/8--6-66-6-66-1-11-1-0-1\6-|
           p     p  p         ..   ..   ..   .

C |------------------------------------------------|
G |------------------------------------------------|
D#|*----------------------------------------------*|GTR 2
A#|*----------------------------------------------*|
F |--2---------------------------------------------|
C |--0---------------------------------------------|

[Riff F Cont'd]                                  x 1
C |------------------------------------------------|
G |------------------------------------------------|
D#|*----------------------------------------------*|GTR 1
A#|*----------------------------------------------*|
F |--2------2”----2”---5/10-8-88-8-88-3-33-3---3\8-|
C |--0-0"-3_0”--3_0”_3-3/8--6-66-6-66-1-11-1-0-1\6-|
           p     p  p         ..   ..   ..   .


C |------------------------------------------------|
G |------------------------------------------------|
D#|*----------------------------------------------*|GTR 2
A#|*----------------------------------------------*|
F |--2-----------------5/10-8-88-8-88-3-33-3---3\8-|
C |--0-----------------3/8--6-66-6-66-1-11-1-0-1\6-|
                              ..   ..   ..   .

[Riff F Cont'd]                                  x 4
C |------------------------------------------------|
G |------------------------------------------------|
D#|*----------------------------------------------*|GTR 1
A#|*----------------------------------------------*|
F |--2------2”----2”---5/10-8-88-8-88-3-33-3---3\8-|
C |--0-0"-3_0”--3_0”_3-3/8--6-66-6-66-1-11-1-0-1\6-|
           p     p  p         ..   ..   ..   .

C |------------------------------------------------|
G |------------------------------------------------|
D#|*----------------------------------------------*|GTR 2
A#|*----------------------------------------------*|
F |--2------2”----2”---5/10-8-88-8-88-3-33-3---3\8-|
C |--0-0"-3_0”--3_0”_3-3/8--6-66-6-66-1-11-1-0-1\6-|
           p     p  p         ..   ..   ..   .

Play Riff A2 2 times
Play Riff F  2 times (gtr 2 plays same as gtr 1)
Play Riff A1 2 times (gtr 2 plays same as gtr 1)

                            _________________ ___________________
[Riff G]                   |1.               |2.                 |
C |------------------------|-----------------|-------------------|
G |------------------------|-----------------|-------------------|
D#|*-----------------------|-----------------|---------------5--*|GTR 1
A#|*-----7--8-----8--7-----|-----7-8---8-7---|-----7-8---8-7----*|
F |--5---5--6--8--6--5--8--|--5------8-----8-|--5------8---------|
C |--3---5--6--6--6--5--6--|-----------------|-------------------|

                            _________________ ___________________
                           |1.               |2.                 |
C |------------------------|-----------------|-------------------|
G |------------------------|-----------------|-------------------|
D#|*-----------------------|-----------------|---------------5--*|GTR 2
A#|*-----7--8-----8--7-----|-----7-8---8-7---|-----7-8---8-7----*|
F |--5---5--6--8--6--5--8--|--5------8-----8-|--5------8---------|
C |--3---5--6--6--6--5--6--|-----------------|-------------------|

[Riff H]                                        x 2
C |------------------------------------------------|
G |------------------------------------------------|
D#|*-----------------------------------------5"---*|GTR 1
A#|*----7"-8"-7"-----6"-------7"-8"-7"----6"------*|
F |--5"----------8"-------5"-----------8"----------|
C |------------------------------------------------|

C |------------------------------------------------|
G |------------------------------------------------|
D#|*-----------------------------------------5"---*|GTR 2
A#|*----7"-8"-7"-----6"-------7"-8"-7"----6"------*|
F |--5"----------8"-------5"-----------8"----------|
C |------------------------------------------------|


Play Riff G 2 times
Play Riff E 2 times


                            _________________________________________________x 8
[Riff I]                   |1.3.5.7.                 |2.4.6.8.                 |
C |------------------------|-------------------------|-------------------------|
G |------------------------|-------------------------|-------------------------|
D#|*-----------------------|------------------------*|------------------------*|GTR 1
A#|*-----------------------|------------------------*|------------------------*|
F |--2--2----2--2----2--2--|-7-8-7-5-5-7-5-5-7-5-7-8-|-7-8-7-5-5-7-5-5-7-5/8~--|
C |--0--0----0--0----0--0--|-------------------------|-------------------------|

                            ___________________________________________________
                           |5.7.(see note)           |4.6.8.(see note)         |
C |------------------------|-------------------------|-------------------------|
G |------------------------|-------------------------|-------------------------|
D#|*-----------------------|------------------------*|------------------------*|GTR 2
A#|*-----------------------|------------------------*|------------------------*|
F |--2--2----2--2----2--2--|-7-8-7-5-5-7-5-5-7-5-7-8-|-7-8-7-5-5-7-5-5-7-5/8~--|
C |--0--0----0--0----0--0--|-------------------------|-------------------------|

[NOTE: GTR 2 only plays second bar starting on 4th time]


Play Riff C 2 times (over solo)


[Solo]
C |--------------------------------------------------------------------------------------------|
G |--------------------------------------------------------------------------------------------|
D#|--9~--12-11b-9~--9-11-12-11-12-14-12-14-16-14-16-17-----12-11b-9~--9/11~-11/12~-------------|
A#|----------------------------------------------------10~-------------------------9”-11”-12”--|
F |--------------------------------------------------------------------------------------------|
C |--------------------------------------------------------------------------------------------|

C |------------------------------------------------------------------------------------|
G |--10”-12”-----------------------10”-12”------------13~---12b--10~-------------------|
D#|----------12”-11”-9”-9”-11”-12”---------12”-11”-9”------------------12--10--12\9~---|
A#|------------------------------------------------------------------------------------|
F |------------------------------------------------------------------------------------|
C |------------------------------------------------------------------------------------|

                    ____________ ____________
[Riff J]           |1.           |2.         |
C |----------------|-------------|-----------|
G |----------------|-------------|-----------|
D#|*---------------|-------------|----------*|GTR 1
A#|*---------------|-------------|----------*|
F |--6-----2-----2-|-----3-------|-5/6-5-3/6-|
C |--4-000-0-000-0-|-3-4---4_3-4-|-3/4-3-1/4-|
       ....  ...            p
                    _____________ ___________
                   |1.           |2.         |
C |----------------|-------------|-----------|
G |----------------|-------------|-----------|
D#|*---------------|-------------|----------*|GTR 2
A#|*---------------|-------------|----------*|
F |--6-----2-----2-|-----3-------|-5/6-5-3/6-|
C |--4-000-0-000-0-|-3-4---4_3-4-|-3/4-3-1/4-|
       ....  ...            p
                       _______________ _________________
[Riff K]              |1.             |2.               |
C |-------------------|---------------|-----------------|
G |-------------------|---------------|-----------------|
D#|*------------------|---------------|----------------*|GTR 1
A#|*-2---4/5----5-----|--2-3-2--------|--2-3-2------5--*|
F |--0-0-2/3-33-3-333-|--------3-2-3--|--------3-2------|
C |-------------------|---------------|-----------------|
       .     ..   ...
                       _______________ _________________
[Riff K]              |1.             |2.               |
C |-------------------|---------------|-----------------|
G |-------------------|---------------|-----------------|
D#|*------------------|---------------|----------------*|GTR 2
A#|*-2---4/5----5-----|--2-3-2--------|--2-3-2------5--*|
F |--0-0-2/3-33-3-333-|--------3-2-3--|--------3-2------|
C |-------------------|---------------|-----------------|
       .     ..   ...

[Fill]
C |------------|
G |------------|
D#|*----------*|GTR 1 and GTR 2
A#|*----------*|
F |--2---2-----|
C |--0---0--x\-|


Play Riff G 2 times


[Riff L]                              
C |--------------------------------------|
G |--------------------------------------|
D#|*------------------------------------*|GTR 1
A#|*------------------------------------*|
F |--7----9-10------3-----2------6-------|
C |--5----7--8------1-----0------4-------|
                                      
C |--------------------------------------|
G |--------------------------------------|
D#|*------------------------------------*|GTR 2
A#|*------------------------------------*|
F |--7---9-10-------3-----2------6-------|
C |--5---7--8-------1-----0------4-------|


Play Riff G  2 times
Play Riff A2 2 times (gtr 2 plays same as gtr 1)


[Ending]
C |---------------------------|
G |---------------------------|
D#|---------------------------|GTR 1 and GTR 2
A#|---------------------------|
F |--2--2-----2--2------2--2--|
C |--0--0-----0--0------0--0--|

************************************

| \    Slide down
| .    Staccato
| (n)  Ghost note
| h    Hammer-on
| p    Pull-off
| /    Slide up
| b    Bend
| ~    Vibrato
| x\   pick slide down

************************************
 
 
Dismember - Override Of The Overture :: indexed at Ultimate Guitar.
Override Of The Overture tabs @ 911Tabs
People who played Dismember - Override Of The Overture also played these songs by Dismember:
Casket Garden Tab, Override Of The Overture Tab, Casket Garden Tab, Dreaming In Red Tab, 9th Circle Tab, Dreaming In Red Tab

Quick tip, so you can enjoy Override Of The Overture even more:

YourChords.com Guitar Chords and Tabs Archive is currently indexing over 240'000 songs from 21'000+ different artists. And new chords just keep on coming in, so you will surely never run out of them.

Show us your talent, perform Override Of The Overture!

Here you can post a video or audio performance. Tell me more ...
Where can we find your performance? Tell me more ...
Your comment:
Please, log in to post your performance.