Artists by letter: A B C D E F G H I J K L M N O P Q R S T U V W X Y Z 0-9

 
Dreaming In Red
Band: Dismember
Song: Dreaming In Red
Album: Indecent And Obscene (1993)
Label: Nuclear Blast

Tuning C F A# D# G C

b = bend                p = pull off
h = half                h = hammer on
f = full                q = quarter
r = release             t = tap
/ = slide up            \ = slide down
ah = atificial harmonic  ~ = vibrato



Intro bass riff :

|---2---4---5---10---9---5---5-4h5---2---4---5---5---2---4---5---5-|
|------------------------------------------------------------------|
|-0---0---0---0----0---0---0---------------------------------------|
|----------------------------------1---1---1---1---1---1---1---3---|



Riff 1:
(0:16-1:16)
|------------------------------------------------------------------|
|------------------------------------------------------------------|
|------------------------------------------------------------------|
|------------------------------------------------------------------|
|-7-7---------------------------3--------------3-------------------|
|-5-5---------------------------1--------------1-------------------|
  .

Solo:
(0:47-1:24)
|-----------------------------------------------------------------------------
|-----------------------------ah----------------------------------------------
|-14~--16bhr-16bh-16bhr--10~--10~-9bhr-7-5-4p2p0h2--0h2/14--17p16p14-17p16p14-
|-----------------------------------------------------------------------------
|-----------------------------------------------------------------------------
|-----------------------------------------------------------------------------

continued

|------------Really unsure about this bit-----------|
--------------------------------------------------------------------------
--------------------------------------------------------------------------
-17p16p14-17p16p14-18p16p15-18p16p15-19p17p16-19p17p16-20p19p17-20p19p17--
--------------------------------------------------------------------------
--------------------------------------------------------------------------
--------------------------------------------------------------------------

continued

--------------------------------------------17--20p19p17-20p19p17-20p19p17-
15bh-15bh-15bhr-15bh-15bh-15bhr----------17--------------------------------
----------------------------------14--14-----------------------------------
---------------------------------------------------------------------------
---------------------------------------------------------------------------
---------------------------------------------------------------------------

continued

-20p19p17--19bh---------------------------------------------------------ah--
-----------------18-17-15-17--17h18p17-15h17p15-13h15p13-12h13p12-10--9-10--
----------------------------------------------------------------------------
----------------------------------------------------------------------------
----------------------------------------------------------------------------
----------------------------------------------------------------------------

continued
                                             ah     
---------------------------------------------17~------------------------------|
-10-12-12bhr--------------------------------------------15bf-15-13-12-13-10\--|
-------------10-9-7--16bhr-14-13-14-16bq-14------14\--------------------------|
------------------------------------------------------------------------------|
------------------------------------------------------------------------------|
------------------------------------------------------------------------------|



Riff 2:
(1:17-1:30)
|-------------------------------------------------------------------------|
|-------------------------------------------------------------------------|
|-------------------------------------------------------------------------|
|----------10-9-------------10-9-----------------10-9-------------10-9----|
|-7---7-7-------10-3---3-3-------10-7-7-7---7-7-------10-3---3-3-------10-|
|-5---5-5----------1---1-1----------5-5-5---5-5----------1---1-1----------|
      .                .            . .     .                .

Riff 3:
(1:31-1:44)
|-----------------------|
|-----------------------|
|-----------------------|
|-----5-----------------|
|-7---3-6--5/6-6/7-6-3--|
|-5-----4--3/4-4/5-4-1--|



Riff 4a:
(1:44-1:50)
|------------------------------------|
|------------------------------------|
|------------------------------------| Gtr 1
|---9---10---9----7----7----7----7---|
|-7---7----7---7----8----8----8----8-|
|------------------------------------|
  .   .    .   .    .    .    .    .

Riff 4b:
(1:50-2:02)
|------------------------------------|
|------------------------------------|
|------------------------------------| Gtr 1
|---9---10---9----7----7----7----7---|
|-7---7----7---7----8----8----8----8-|
|------------------------------------|
  .   .    .   .    .    .    .    .

|------------------------------------|
|------------------------------------|
|------------------------------------|Gtr 2
|------------------------------------|
|-2-3---------------2-3--------------|
|-0-3---------------0-1--------------|
  .                 .



Riff 5:
(2:04-2:16)
|-----------------------------------------------------------------------------|
|-----------------------------------------------------------------------------|
|----------------10---9-------------------------------------------------------|
|---7---9---10-------------10--10-9-10----7---9---10---10---7---9---10----10--|
|-0---0---0----0----0----0---0----------8---8---8----8----8---8---8----10-----|
|-----------------------------------------------------------------------------|
  .   .   .    .    .    .   .          .   .   .    .    .   .   .    .



Repeat Riff 3
(2:16-2:28)



Riff 6a:
(2:29-2:37)
|---------------------------|
|---------------------------|
|---------------------------|
|---------------------------|
|-7--7-6----9-10-9----9-10--|
|---------8--------10-------|
          .

Riff 6b:
(2:37-2:39)
|----------------------------|
|----------------------------|
|----------------------------|
|----------------------------|
|-7--7-6tr7--9-10-9----9-10--|
|-------------------10-------|



Riff 7:
(2:40-2:52)
|------------------------------------------------------|
|------------------------------------------------------|Gtr1
|-------------5555-------------------------------------|
|-----77778888----88887777-----------------7777--------|
|-5555---------------------------7777-8888------8888---|
|---------------------------5555-----------------------|
|
|-----------------------------------|
|-----------------------------------|Gtr2
|-----------------------------------|
|-----------------------------------|
|-5-------------------------7-------|
|-5-------------------------5-------|

|-----------------------------------------|
|-----------------------------------------|Gtr1
|-------------333355556666----------------|
|-----55556666----------------------------|
|-3333-----------------------6677--6677---|
|--------------------------44----44-------|

|------------------------------------|
|------------------------------------|
|------------------------------------|Gtr2
|------------------------------------|
|-3------------------------6---------|
|-3------------------------4---------|



Riff 8:

(2:54-3:06)
|------------------|
|------------------|
|------------------|
|------------------|
|-6/7\6---3/6--3/6-|
|-4/5\4---1/4--1/4-|



Repeat Riff 6a
(3:07-3:14)

Repeat Riff 6b
(3:14-3:17)



Riff 9:
(3:17-3:33)
|-------------------------------------|-----|-----|
|-------------------------------------|-----|-----|
|-------------------------------------|-----|-----|
|-------------------------------------|-5"--|-6~--|
|------7"-5"----7tr8--6"---8"-9"--6"--|-----|-----|
|-0"---------7"-----------------------|-----|-----|



Riff 10a:
(3:34-4:09)
|-----------------------------------|
|-----------------------------------|
|-----------------------------------|
|-----7-8-7-------------------------|
|-5---------8-7-5-8--4---4-5--7-8-7-|
|-5------------------4--------------|



Riff 10b:
(4:10-5:20)
|-----------------------|
|-----------------------|
|-----------------------|
|-----------------------|
|-5---5---4--4-5--7-8-7-|
|-5---5---4-------------|



solo 2:
(4:26-4:33)
|------------------------------------------------------|
|-5bh-3--8bfr--6-5--6----------------------------------|
|-----------------------6--------7-9-10-9--??--10-9-7--|
|--------------------------7---------------------------|
|-----------------------------7------------------------|
|------------------------------------------------------|



(4:33-4:59) - too fast for me



(4:59-5:05)

|-----------------10--6---6--------------------------------------------|
|------10------10-------8---8----------8--11---8tr11-------------------|
|-7-10----7-10----------------9--6--9----------------9tr12-6tr9--------|
|---------------------------------------------------------------8tr11--|
|----------------------------------------------------------------------|
|----------------------------------------------------------------------|

(5:06-5:20) - fades out

End.

 
 
Dismember - Dreaming In Red :: indexed at Ultimate Guitar.
Dreaming In Red tabs @ 911Tabs
People who played Dismember - Dreaming In Red also played these songs by Dismember:
Casket Garden Tab, Override Of The Overture Tab, Casket Garden Tab, Dreaming In Red Tab, 9th Circle Tab, Dreaming In Red Tab

Quick tip, so you can enjoy Dreaming In Red even more:

If you don't really know how to deal with "Absus4" chord and his equally confusing brothers, just put the mouse cursor over them and you will be shown a helpful chord diagram.

Show us your talent, perform Dreaming In Red!

Here you can post a video or audio performance. Tell me more ...
Where can we find your performance? Tell me more ...
Your comment:
Please, log in to post your performance.