Artists by letter: A B C D E F G H I J K L M N O P Q R S T U V W X Y Z 0-9

 
Dreaming In Red
I TRY TO DO MY BEST AND I CONTINUE TO FOUND SOME MISTAKE BUT ON SOMES PART
I NEED HELP.

PLEASE HELP ME TO FINISH THIS WONDERFUL SONG.

Thanks, Vincent


		DISMEMBER - Dreaming In Red
			Version 2.0 Martch 2002

Transcribed by: Vincent

For Questions, Comments, Newest Version, or Corrections contact
 Vincent at [email protected]

.  - palm mute          /  - slide up to
 \  - slide down to      ~  - vibrato
 h  - hammer on          b  - bend
 p  - pull off            Suffixes for bend
                          ph - pinch harmonic
                           f - full bend    h - half bend
*  - see comment           r - release      t - tap bend
X  - percussion mute       ~ - vibrato bend
@  - slight palm mute     () - Hold note until next note
" - Tremolo until next note
' - Slower Tremolo until next note

Tune Gtr to B ( but with the intro bas riif i think that they are tuned 1/2 down)

Intro bass riff :
|------------------------------------------------------------------|
|---------------4---3----------------------------------------------|
|---1---3---4-----------4----4-3-4---1---3---4---4---1---3---3---4-|
|-1---1---1---1---1---1---1--------2---2---2---2---2---2---2---4---|

Riff 1:
|------------------------------------------------------------------|
|------------------------------------------------------------------|
|------------------------------------------------------------------|
|------------------------------------------------------------------|
|---8------------------------------4-----------------4-------------|
|-0-6------------------------------2-----------------2-------------|
 pm

Solo: Mutch better now but some mistake
|---------b--------b-----b-----------ah---------------------------------|
|-15---17/ \-15-17/ \-17/ \--15------15---------------------------------|
|-------------------------------16---------15h16p15-13---15--13h15p13\8-|
|-----------------------------------------------------------------------|
|-----------------------------------------------------------------------|

|------------------------------------------------------------------|
|------------------------------------------------------------------|
|----(h15)---18p16p15-18p16p15-18p16p15-18p16p15-19p16p15-19p16p15-|
|-8h11T20----------------------------------------------------------|
|------------\_________totally unsure of___________________________|
|------------------------------------------------------------------|

|---------------------------------b----------b---------b--b------------|
|-----------------------------16/   \-14-16/   \-14-16/ \/ \-11--------|
|-19p16p15-20p19p17-20p19p17-------------------------------------------|
|-_________________________/-------------------------------------------|
|----------------------------------------------------------------------|
|----------------------------------------------------------------------|
                                                     b
|-----(h18)---20p19p18-20p19p18-20p19p18-21p20p18-20/ \----------------|
|-11h13T23-----------------------------------------------19-18--16-18--|
|----------------------------------------------------------------------|
|----------------------------------------------------------------------|
|----------------------------------------------------------------------|
|----------------------------------------------------------------------|

|-------------------------------------ah----------------------------b--------------13----|
|-19tr18-16tr18-14tr16-13tr14-11---10-11--10-11-13-14-13---------13/ \-11-10-11-13----11-|
|--------------------------------------------------------11-10-8-------------------------|
|----------------------------------------------------------------------------------------|
|----------------------------------------------------------------------------------------|
|----------------------------------------------------------------------------------------|
                                                                                      end
Riff 2:
|------------------------------------------------------------------|
|------------------------------------------------------------------|
|------------------------------------------------------------------|
|------------------------------------------------------------------|
|-8-----------8-----11---10--------4-----------4-----11-10---------|
|-6---------6-6---------------11---2---------2-2-----------11--6-6-|
           pm                               pm                pm-+

Riff 3:
|----------------------------|
|----------------------------|
|----------------------------|
|----------------------------|
|-8-----7-----8----7/8---7/8-|
|-6---0-5---0-6----5/6---5/6-|
     pm    pm

Riff 4:
|----------------------------------------------|
|----------------------------------------------|
|----------------------------------------------| Gtr 1
|---10---11---10-----8-----8-----8-----8-----8-|
|-8----8----8-----9-----9-----9-----9-----9----|
|----------------------------------------------|
 pm   pm   pm    pm    pm    pm    pm    pm


|----------------------------------------------|
|----------------------------------------------|
|----------------------------------------------| Gtr 2
|----5---------------4-------------------------|
|----3---------------2-------------------------|
|-0--3------------0--2-------------------------|

Riff 5:
|---------------------------------------------------------------------------------|
|---------------------------------------------------------------------------------|
|-----------------11---10---------------------------------------------------------|
|---8---10---11-------------11----11-10-11----8---10---11---11---8---10---10----8-|
|-0---0----0----0----0----0----0------------9---9----9----9----9---9----9----11---|
|---------------------------------------------------------------------------------|
 pm  pm   pm   pm   pm   pm   pm           pm  pm   pm   pm   pm  pm   pm

Riff 6:
|------------------------------|
|------------------------------|
|------------------------------|
|-3-----2-----5--6--5--3--5--6-|
|------------------------------|
|----0-------------------------|
    pm

Riff 7:
|------------------------------------------------------|
|------------------------------------------------------|
|------------------------------------------------------|
|-----888899991111111199998888----77778888----77776666-|
|-6666------------------------5555--------0000---------|
|------------------------------------------------------|
                                                        end.
|----------------------------------------------------------|
|----------------------------------------------------------|
|-------------666688889999---------------------------------|
|-----88889999----------------999910101010----999910101010-|
|-6666--------------------7777------------7777-------------|
|----------------------------------------------------------|

Riff 8:
|-------------------|
|-------------------|
|-------------------|
|-------------------|
|-8/9\8--0--7--0--7-|
|-6/7\6--0--5--0--5-|

Riff 9: fucking riff don't find what they do!!!! /-(

Riff 10a:
|--------------------------------------|
|--------------------------------------|
|--------------------------------------|
|-8----8-9-8---------7-----------------|
|-6----------9-8-6-9-5----5-6----8-9-8-|
|-6------------------5-----------------|

Riff 10b:
|--------------------------------------|
|--------------------------------------|
|--------------------------------------|
|-8--------8---------7-----------------|
|-6--------6---------5----5-6----8-9-8-|
|-6--------6---------5-----------------|

Okay this is finish...
I like this song so much...so if anyone can tab the others solo and correct
some mistake i would be so happy.

Good playing..
 
 
Dismember - Dreaming In Red :: indexed at Ultimate Guitar.
Dreaming In Red tabs @ 911Tabs
People who played Dismember - Dreaming In Red also played these songs by Dismember:
Casket Garden Tab, Override Of The Overture Tab, Casket Garden Tab, Dreaming In Red Tab, 9th Circle Tab, Dreaming In Red Tab

Quick tip, so you can enjoy Dreaming In Red even more:

If you spend just 10 seconds to register, you will be able to comment on all the chords and tabs and rate them. You will as well be able to comment on videos of your fellow guitarists and give them ratings from 1 to 5 ... And - of course - you can share your own videos with them and see what they think of you. :)
Click here to join us!

Show us your talent, perform Dreaming In Red!

Here you can post a video or audio performance. Tell me more ...
Where can we find your performance? Tell me more ...
Your comment:
Please, log in to post your performance.