Artists by letter: A B C D E F G H I J K L M N O P Q R S T U V W X Y Z 0-9

 
Kopf Oder Zahl
-------------------------------------------------------------------------------
                             Kopf oder Zahl - Die Toten Hosen
-------------------------------------------------------------------------------
Tabbed by:
E-mail:

Tuning: Drop-D


e|---------------------------------------------------------------------------|
B|---------------------------------------------------------------------------|
G|---------------------------------------------------------------------------|
D|0------54-0----------------------------------------------------------------|
A|0-3h5-----0--3-3h5---------------------------------------------------------|
D|0----0----0----------------------------------------------------------------|

e|---------------------------------------------------------------------------|
B|---------------------------------------------------------------------------|
G|---------------------------------------------------------------------------|
D|0------54--0---------------------------------------------------------------|
A|0-3h5------0-3------------------------------------------------------------|
D|0----0-----0----567--------------------------------------------------------|

Refrain 

e|-----------|---------------------------------------------------------------|
B|-----------|--------55-----------------------------------------------------|
G|7-77X22255-|5-55X55544-----------------------------------------------------|
D|5-55X00055-|3-33X555-------------------------------------------------------|
A|--------33-|-----333-------------------------------------------------------|
D|-----------|---------------------------------------------------------------|

e|-----------|---------------------------------------------------------------|
B|-----------|--------55-----------------------------------------------------|
G|7-77X22255-|5-55X77777-----------------------------------------------------|
D|5-55X00055-|3-33X55555-----------------------------------------------------|
A|--------33-|---------------------------------------------------------------|
D|-----------|---------------------------------------------------------------|

Bridge 

e|-----------|---------------------------------------------------------------|
B|-----------|5-55-----------------------------------------------------------|
G|7-77X55555-|4-44X77777-----------------------------------------------------|
D|5-55X33333-|----X55555-----------------------------------------------------|
A|-----------|---------------------------------------------------------------|
D|-----------|---------------------------------------------------------------|


e|-----------|---------------------------------------------------------------|
B|-----------|5-55-----------------------------------------------------------|
G|7-77X55555-|4-44X55555-----------------------------------------------------|
D|5-55X33333-|----X33333-----------------------------------------------------|
A|-----------|---------------------------------------------------------------|
D|-----------|---------------------------------------------------------------|

Bridge 2
e|---------------------------------------------------------------------------|
B|---------------------------------------------------------------------------|
G|---------------------------------------------------------------------------|
D|----0-------0-------0-------0----------------------------------------------|
A|---0-0-----0-0-----0-0-----0-0---------------------------------------------|
D|0-------0-------0-------0--------------------------------------------------|

intro 3x
Strophe 3x
Refrain 
Bridge 1
Strophe 
Refrain 
Bridge 2
Intro 1x
Refrain 
Refrain 
Intro 1 1/2x 


************************************

| /   slide up
| \   slide down
| h   hammer-on
| p   pull-off
| ~   vibrato
| +   harmonic
| x   Mute note
| b   Bend
| pb  Pre-bend
| br  Bend release
| pbr Pre-bend release
| brb Bend release bend

************************************
 
 
Die Toten Hosen - Kopf Oder Zahl :: indexed at Ultimate Guitar.
Kopf Oder Zahl tabs @ 911Tabs

About the artist behind Kopf Oder Zahl:

Die Toten Hosen is a German punk band from Düsseldorf. They are one of the German-language acts who have enjoyed decades-long mass appeal in Germany.

The band's name literally means "The Dead Trousers" in English, although the phrase "tote Hose" is a German expression meaning "impotent", "lifeless", "boring", or "nothing going on".

Indexed at Wikipedia.

Show us your talent, perform Kopf Oder Zahl!

Here you can post a video or audio performance. Tell me more ...
Where can we find your performance? Tell me more ...
Your comment:
Please, log in to post your performance.