Artists by letter: A B C D E F G H I J K L M N O P Q R S T U V W X Y Z 0-9

 
Hier Kommt Alex
source: www.hosentabs.ch.vu 
There are so many wrong versions of the intro in the WWW, so here´s the right!

Hier kommt Alex 

 [Intro]
   Dm
e|--------1-----0--1---------------1-----0--1--------|
B|-----3-----3--------3---------3-----3--------3-----|
G|---------------------------------------------------|
D|--0--------------------0------------------------0--|
A|---------------------------------------------------|
E|---------------------------------------------------|

   B
e|--------1-----0--1---------------1-----0--1--------|
B|-----3-----3--------3---------3-----3--------3-----|
G|--3--------------------3------------------------0--|
D|---------------------------------------------------|
A|---------------------------------------------------|
E|---------------------------------------------------|

   C
e|--------1-----0------------------1-----0-----------|
B|--1--------1-----1------------------1-----1--------|
G|-----0--------------0---------0--------------0-----|
D|------------------------------------------------0--|
A|-----------------------3---------------------------|
E|---------------------------------------------------|

   G
e|--------3-----3------------------------------3-----|
B|-----3-----3----3-------------------------3-----3--|
G|--0----------------0-------------------0-----------|
D|---------------------0--------------0--------------|
A|---------------------------------2-----------------|
E|------------------------------3--------------------|

[1.Strophe]  (gleiche chords wie intro/same chords like the intro)
In einer Welt in der man nur noch lebt
damit man täglich roboten geht
ist die größte Aufregung die es noch gibt
dass Allabendliche Fernsehbild
Jeder Mensch lebt wie ein Uhrwerk
wie ein Computer programmiert
Es gibt keinen der sich dagegen wehrt
nur ein paar Jugendliche sind frustriert

Wenn am Himmel die Sonne untergeht
beginnt für die Groups der Tag
In kleinen Banden sammeln sie sich
gehen gemeinsam auf die Jagd

[Refrain/maybe powerchords]
Dm               B
Hey, hier kommt Alex
         G                   C
Vorhang auf für seine Horrorshow!

[2.Strophe]
Auf dem Kreuzzug gegen die Ordnung
und die scheinbar heile Welt
zelebrieren sie die Zerstörung
Gewalt und Brutalität
Erst wenn sie ihre Opfer leiden sehen
spüren sie Befriedigung
Es gibt nichts mehr was sie jetzt aufhält
in ihrer gnadenlosen Wut

[Refrain]
Hey, hier kommt Alex
Vorhang auf für seine Horrorshow
Hey, hier kommt Alex
Vorhang auf für ein kleines bißchen Horrorshow

[Bridge]
20 gegen einen
bis das Blut zum Vorschein kommt
Ob mit Stöcken oder Steinen
irgendwann platzt jeder Kopf
Das nächste Opfer ist schon dran
wenn ihr den lieben Gott noch fragt
"Warum hast du nichts getan
nichts getan?"
 
 
Die Toten Hosen - Hier Kommt Alex :: indexed at Ultimate Guitar.
Hier Kommt Alex tabs @ 911Tabs

About the artist behind Hier Kommt Alex:

Die Toten Hosen is a German punk band from Düsseldorf. They are one of the German-language acts who have enjoyed decades-long mass appeal in Germany.

The band's name literally means "The Dead Trousers" in English, although the phrase "tote Hose" is a German expression meaning "impotent", "lifeless", "boring", or "nothing going on".

Indexed at Wikipedia.

Show us your talent, perform Hier Kommt Alex!

Here you can post a video or audio performance. Tell me more ...
Where can we find your performance? Tell me more ...
Your comment:
Please, log in to post your performance.