Artists by letter: A B C D E F G H I J K L M N O P Q R S T U V W X Y Z 0-9

 
Guns
Notes in "( )" are palm muted.

Intro

e---------------|
B---------------|
G---------------|
D-5-5--7-7--9---|
A-3-3--5-5--7---|
E---------------|

Verse
e---------------------------------------------------------|
B---------------------------------------------------------|
G---------------------------------------------------------|
D-9-9-9-9-9-9-9-9--10-X-10-X-9--7-7-7-7-7-7-7-7-----------|
A-7-7-7-7-7-7-7-7---8-X--8-X-8--5-5-5-5-5-5-5-5---7--7--7-|
E-------------------------------------------------5--5--5-|

e---------------------------------------------------------|
B---------------------------------------------------------|
G-------------------------------------------------9--9--9-|
D-9-9-9-9-9-9-9-9--10-X-10-X-9--7-7-7-7-7-7-7-7---7--7--7-|
A-7-7-7-7-7-7-7-7---8-X--8-X-8--5-5-5-5-5-5-5-5-----------|
E---------------------------------------------------------|

e---------------------------------------------------------|
B---------------------------------------------------------|
G---------------------------------------------------------|
D-9-9-9-9-9-9-9-9--10-X-10-X-9--7-7-7-7-7-7-7-7-----------|
A-7-7-7-7-7-7-7-7---8-X--8-X-8--5-5-5-5-5-5-5-5---7--7--7-|
E-------------------------------------------------5--5--5-|

e---------------------------------------------------------|
B---------------------------------------------------------|
G-------------------------------------------------9--9--9-|
D-9-9-9-9-9-9-9-9--10-X-10-X-9--7-7-7-7-7-7-7-7---7--7--7-|
A-7-7-7-7-7-7-7-7---8-X--8-X-8--5-5-5-5-5-5-5-5-----------|
E---------------------------------------------------------|

Chorus
e----------------------------------------------------------------|
B----------------------------------------------------------------|
G----------------------------------------------------------------|
D-9-9-9--10-10-10--------------------5-5--7-7-7--9-9-9-9-9-9-9-9-|
A-7-7-7---8--8--8--9-(9-9-9-9-9-9-9)-3-3--5-5-5--7-7-7-7-7-7-7-7-|
E------------------7-(7-7-7-7-7-7-7)-----------------------------| 4X

e---------------|
B---------------|
G---------------|
D-5-5--7-7--9---|
A-3-3--5-5--7---|
E---------------|

Verse
e---------------------------------------------------------|
B---------------------------------------------------------|
G---------------------------------------------------------|
D-9-9-9-9-9-9-9-9--10-X-10-X-9--7-7-7-7-7-7-7-7-----------|
A-7-7-7-7-7-7-7-7---8-X--8-X-8--5-5-5-5-5-5-5-5---7--7--7-|
E-------------------------------------------------5--5--5-|

e---------------------------------------------------------|
B---------------------------------------------------------|
G-------------------------------------------------9--9--9-|
D-9-9-9-9-9-9-9-9--10-X-10-X-9--7-7-7-7-7-7-7-7---7--7--7-|
A-7-7-7-7-7-7-7-7---8-X--8-X-8--5-5-5-5-5-5-5-5-----------|
E---------------------------------------------------------|

e---------------------------------------------------------|
B---------------------------------------------------------|
G---------------------------------------------------------|
D-9-9-9-9-9-9-9-9--10-X-10-X-9--7-7-7-7-7-7-7-7-----------|
A-7-7-7-7-7-7-7-7---8-X--8-X-8--5-5-5-5-5-5-5-5---7--7--7-|
E-------------------------------------------------5--5--5-|

e---------------------------------------------------------|
B---------------------------------------------------------|
G-------------------------------------------------9--9--9-|
D-9-9-9-9-9-9-9-9--10-X-10-X-9--7-7-7-7-7-7-7-7---7--7--7-|
A-7-7-7-7-7-7-7-7---8-X--8-X-8--5-5-5-5-5-5-5-5-----------|
E---------------------------------------------------------|

Chorus
e----------------------------------------------------------------|
B----------------------------------------------------------------|
G----------------------------------------------------------------|
D-9-9-9--10-10-10--------------------5-5--7-7-7--9-9-9-9-9-9-9-9-|
A-7-7-7---8--8--8--9-(9-9-9-9-9-9-9)-3-3--5-5-5--7-7-7-7-7-7-7-7-|
E------------------7-(7-7-7-7-7-7-7)-----------------------------| 4X

e-------------|
B-------------|
G-------------|
D-5-5--7-7--9-|
A-3-3--5-5--7-|
E-------------|

Bass Solo

e-------------------------------------------|
B-------------------------------------------|
G-------------------------------------------|
D-9-9-9-9-9-9-9-9-9-9-9-9-9-9-9-9-9-9-9-9-9-|
A-7-7-7-7-7-7-7-7-7-7-7-7-7-7-7-7-7-7-7-7-7-|
E-------------------------------------------|

e-----------------------------------------------------------------|
B-----------------------------------------------------------------|
G-----------------------------------------------------------------|
D-----------------------------------------------------------------|
A-5-7-7-7-5-7-7-7-5-7-7-7-5-7-7-7-5-7-7-7-5-7-7-7-5-7-7-7-5-7-7-7-|
E-----------------------------------------------------------------|

Verse
e---------------------------------------------------------|
B---------------------------------------------------------|
G---------------------------------------------------------|
D-9-9-9-9-9-9-9-9--10-X-10-X-9--7-7-7-7-7-7-7-7-----------|
A-7-7-7-7-7-7-7-7---8-X--8-X-8--5-5-5-5-5-5-5-5---7--7--7-|
E-------------------------------------------------5--5--5-|

e---------------------------------------------------------|
B---------------------------------------------------------|
G-------------------------------------------------9--9--9-|
D-9-9-9-9-9-9-9-9--10-X-10-X-9--7-7-7-7-7-7-7-7---7--7--7-|
A-7-7-7-7-7-7-7-7---8-X--8-X-8--5-5-5-5-5-5-5-5-----------|
E---------------------------------------------------------|

e---------------------------------------------------------|
B---------------------------------------------------------|
G---------------------------------------------------------|
D-9-9-9-9-9-9-9-9--10-X-10-X-9--7-7-7-7-7-7-7-7-----------|
A-7-7-7-7-7-7-7-7---8-X--8-X-8--5-5-5-5-5-5-5-5---7--7--7-|
E-------------------------------------------------5--5--5-|

e---------------------------------------------------------|
B---------------------------------------------------------|
G-------------------------------------------------9--9--9-|
D-9-9-9-9-9-9-9-9--10-X-10-X-9--7-7-7-7-7-7-7-7---7--7--7-|
A-7-7-7-7-7-7-7-7---8-X--8-X-8--5-5-5-5-5-5-5-5-----------|
E---------------------------------------------------------|

Chorus
e----------------------------------------------------------------|
B----------------------------------------------------------------|
G----------------------------------------------------------------|
D-9-9-9--10-10-10--------------------5-5--7-7-7--9-9-9-9-9-9-9-9-|
A-7-7-7---8--8--8--9-(9-9-9-9-9-9-9)-3-3--5-5-5--7-7-7-7-7-7-7-7-|
E------------------7-(7-7-7-7-7-7-7)-----------------------------| 4X

Ending
e--------------------------------|
B--------------------------------|
G--------------------------------|
D-9-9--10-10-10------------------|
A-7-7---8--8--8--9-9-9-9-9-9-9-9-|
E----------------7-7-7-7-7-7-7-7-|
 
 
Di - Guns :: indexed at Ultimate Guitar.
Guns tabs @ 911Tabs
People who played Di - Guns also played these songs by Di:
Guns Tab, Guns Tab, I Hate Surfing In Hb Tab, Guns, I Hate Surfing In Hb

Quick tip, so you can enjoy Guns even more:

YourChords.com Guitar Chords and Tabs Archive is currently indexing over 240'000 songs from 21'000+ different artists. And new chords just keep on coming in, so you will surely never run out of them.

Show us your talent, perform Guns!

Here you can post a video or audio performance. Tell me more ...
Where can we find your performance? Tell me more ...
Your comment:
Please, log in to post your performance.