Artists by letter: A B C D E F G H I J K L M N O P Q R S T U V W X Y Z 0-9

 
You Think You Know Acoustic
-------------------------------------------------------------------------------
                             You Think You Know Acoustic-Device
-------------------------------------------------------------------------------

Tuning:Standard/Eb Standard

Intro/Verse
e|-------------------------------------------------------------------------|  
B|-------------------------------------------------------------------------|   
G|----5--2-2--8\5--5--5/7~----5-5--2-2--8\5--5--5/7------------------------|   
D|----5--2-2--x-x--x--x-x-----5-5--2-2--x-x--x--x-x------------------------|
A|----3--0-0--6\3--3--3-5~----3-3--0-0--6\3--3--3-5------------------------| 
E|-------------------------------------------------------------------------|
                                                                             intro x 1
e|-------------------------------------------------------------------------| verses x 2
B|-------------------------------------------------------------------------|
G|----5--2-2--8\5--5--5/7~----5-5-5-5--5--3-3-3-3--3-----------------------|
D|----5--2-2--x-x--x--x-x-----5-5-5-5--5--3-3-3-3--3-----------------------|
A|----3--0-0--6\3--3--3-5~----3-3-3-3--3--1-1-1-1--1-----------------------|
E|-------------------------------------------------------------------------|

Pre Chorus
e|---------------------------------------------------------------------------| Play twice
B|---------------------------------------------------------------------------| for each
G|-5/7-7--7-7/8-7--7-7/8-7--7-7/8-8-8-8\7-7\5--------------------------------| pre chorus
D|---------------------------------------------------------------------------|
A|-3/5-5--5-5/6-5--5-5/6-5--5-5/6-6-6-6\5-5\3--------------------------------|
E|---------------------------------------------------------------------------|

Chorus
e|--0----x------------------------------------------------------------| 
B|--1----1----3-------------------------------------------------------| 1st chorus x 4
G|--2----2----0-------------------------------------------------------| 
D|--2----3----0-------------------------------------------------------| 2nd and last x 8
A|--0----3----0-------------------------------------------------------| 
E|------------3-------------------------------------------------------|   
Bridge/Interlude
e|---------------------------1------------------------------------------------|
B|---------------------------1------------------------------------------------|
G|--5-5-5-5--5-5-3-3-3-3--3--3------------------------------------------------|
D|--5-5-5-5--5-5-3-3-3-3--3--3------------------------------------------------|
A|--3-3-3-3--3-3-1-1-1-1--1--1------------------------------------------------|
E|----------------------------------------------------------------------------|

e|--0--------------5--------------------------------------------------|
B|--1--------------6--------------------------------------------------|
G|--2--------------7--------------------------------------------------|
D|--2--------------7--------------------------------------------------|
A|--0--------------5--------------------------------------------------|
E|--------------------------------------------------------------------|

e|----------------------------------------------------------------------------|
B|--------------------------1-------------------------------------------------|
G|--5-5--2--2-2-2--5-x-2-x--2-------------------------------------------------|
D|--5-5--2--2-2-2--5-x-2-x--3-------------------------------------------------|
A|--3-3--0--0-0-0--3-x-0-x--3-------------------------------------------------|
E|----------------------------------------------------------------------------|

e|--0------------5-----------------------------------------------------------|
B|--1------------6-----------------------------------------------------------|
G|--2------------7-----------------------------------------------------------|
D|--2------------7-----------------------------------------------------------|
A|--0------------5-----------------------------------------------------------|
E|---------------------------------------------------------------------------|

e|-------------------------------------| sorry for not putting the strumming patterns,
B|-------------------------------------| i might put them up eventually.check the video 
G|--5-5--2-2--2-2--5-5--5--------------| for them though
D|--5-5--2-2--2-2--5-5--5--------------|
A|--3-3--0-0--0-0--3-3--3--------------|
E|-------------------------------------|

Outro
e|---------------------------------------------------------------------------|
B|---------------------------------------------------------------------------|
G|--5-5-5-5--5-5-3-3-3-3--3-3-2-2-2-2----------------------------------------|
D|--5-5-5-5--5-5-3-3-3-3--3-3-2-2-2-2----------------------------------------|
A|--3-3-3-3--3-3-1-1-1-1--1-1-0-0-0-0----------------------------------------|
E|---------------------------------------------------------------------------|

Sorry its scruffy,but i hope it helps you.all feedback is welcomed,and if there's
mistakes(im sure there is)ill correct them .thanks


************************************

| /   slide up
| \   slide down
| h   hammer-on
| p   pull-off
| ~   vibrato
| +   harmonic
| x   Mute note
| b   Bend
| pb  Pre-bend
| br  Bend release
| pbr Pre-bend release
| brb Bend release bend

************************************
 
 
Device - You Think You Know Acoustic :: indexed at Ultimate Guitar.
You Think You Know Acoustic tabs @ 911Tabs
People who played Device - You Think You Know Acoustic also played these songs by Device:
Vilify Tab, You Think You Know Tab, Close My Eyes Forever Tab, You Think You Know Acoustic Tab, Out Of Line Tab, Haze Tab

Quick tip, so you can enjoy You Think You Know Acoustic even more:

Try out the AutoScroller option ... It scrolls the page for you, so you can totally focus on nailing that solo. You can choose among different speeds using your mouse or your keyboard (keys 0, 1, 2 and 3).

Show us your talent, perform You Think You Know Acoustic!

Here you can post a video or audio performance. Tell me more ...
Where can we find your performance? Tell me more ...
Your comment:
Please, log in to post your performance.