Artists by letter: A B C D E F G H I J K L M N O P Q R S T U V W X Y Z 0-9

 
Die Sterne Und Das Meer
Hier die Tabs zu "Die Sterne und das Meer" vom neuen Album "Unter den Wolken" von Destination Anywhere.
Meiner Meinung nach ist das eines der besten Lieder von der neuen Platte :)
Das sind die ersten Tabs, die ich je gemacht habe, also seid bitte gnädig.

Viel Spaß damit!
Stefano


[Intro/Verse]

   Am      C         C       G
   1 + 2 + 3 + 4 +   1 + 2 + 3 + 4 + 
e|-----------------|-----------------|
B|-----------------|-----------------|
G|-----2-------0---|-----0-------0---|
D|---2---2---2-----|---2---2---0-----|
A|-0-------3-------|-3---------------|
E|-----------------|---------3-------|


[Du musst erwachsen werden...]
   Am                C       G
   1 + 2 + 3 + 4 +   1 + 2 + 3 + 4 + 
e|-----------------|-----------------|
B|-------1---------|-----------------|
G|-----2---2---2---|-----0-------0---|
D|---2-------2---2-|---2---2---0---0-|
A|-0---------------|-3---------------|
E|-----------------|---------3-------|


[Nimm mich mit...]
   Am                C                 C                 G 
   1 + 2 + 3 + 4 +   1 + 2 + 3 + 4 +   1 + 2 + 3 + 4 +   1 + 2 + 3 + 4 + 
e|-0---0---0---0---|-0---0---0---0---|-0---0---0---0---|-3---3---3---3---|
B|-1---1---1---1---|-1---1---1---1---|-1---1---1---1---|-0---0---0---0---|
G|-2---2---2---2---|-0---0---0---0---|-0---0---0---0---|-0---0---0---0---|
D|-2---2---2---2---|-2---2---2---2---|-2---2---2---2---|-0---0---0---0---|
A|-0---0---0---0---|-3---3---3---3---|-3---3---3---3---|-2---2---2---2---|
E|-----------------|-----------------|-----------------|-3---3---3---3---|


 
 
Destination Anywhere - Die Sterne Und Das Meer :: indexed at Ultimate Guitar.
Die Sterne Und Das Meer tabs @ 911Tabs
People who played Destination Anywhere - Die Sterne Und Das Meer also played these songs by Destination Anywhere:
How You Feel Chords, Welcome To Hangover Chords, Die Sterne Und Das Meer Tab, How You Feel, Welcome To Hangover

Quick tip, so you can enjoy Die Sterne Und Das Meer even more:

YourChords.com Guitar Chords and Tabs Archive is currently indexing over 240'000 songs from 21'000+ different artists. And new chords just keep on coming in, so you will surely never run out of them.

Show us your talent, perform Die Sterne Und Das Meer!

Here you can post a video or audio performance. Tell me more ...
Where can we find your performance? Tell me more ...
Your comment:
Please, log in to post your performance.