Artists by letter: A B C D E F G H I J K L M N O P Q R S T U V W X Y Z 0-9

 
Firework
Despite My Deepest Fear
Firework (cover)
Drop C

Introduction - Piano

Verse A1
D|-10--10--10--10---------------------------------13--13--13--13--|
A|-----------------13--13--13--13--11--11--11--11-----------------|
F|----------------------------------------------------------------|
C|----------------------------------------------------------------| x2
G|----------------------------------------------------------------|
C|----------------------------------------------------------------|

Verse A2
D|-----------------------------------------------------------|
A|-----------------------------------------------------------|
F|-----------------------------------------------------------|
C|-8---888-8--10-10---10-10-10-1010--5--555-5--1-1--1-1-1-1--| x2
G|-8---888-8--10-10---10-10-10-1010--5--555-5--1-1--1-1-1-1--|
C|-8---888-8--10-10---10-10-10-1010--5--555-5--1-1--1-1-1-1--|
   *   *** *  *  *    *  *  *  * *   *  *** *  * *  * * * *

Pre-chorus
D|-------------------------------------------------------------------------|
A|-------------------------------------------------------------------------|
F|-------------------------------------------------------------------------|
C|-------------------------------------------------------------------------| x2
G|-8-8-8-8-8-8-8-8-10-10-10-10-10-10-10-10-5-5-5-5-5-5-5-5-1-1-1-1-1-1-1-1-|
C|-8-8-8-8-8-8-8-8-10-10-10-10-10-10-10-10-5-5-5-5-5-5-5-5-1-1-1-1-1-1-1-1-|
   * * * * * * * * *  *  *  *  *  *  *  *  * * * * * * * * * * * * * * * *

Chorus A
Gtr1
D|-------------------------------------------------------------------------|
A|-------------------------------------------------------------------------|
F|-------------------------------------------------------------------------|
C|-8-8-8-8-8-8-8-8-10-10-10-10-10-10-10-10-5-5-5-5-5-5-5-5-1-1-1-1-1-1-1-1-| x4
G|-8-8-8-8-8-8-8-8-10-10-10-10-10-10-10-10-5-5-5-5-5-5-5-5-1-1-1-1-1-1-1-1-|
C|-8-8-8-8-8-8-8-8-10-10-10-10-10-10-10-10-5-5-5-5-5-5-5-5-1-1-1-1-1-1-1-1-|
Gtr2 (vocal accompaniment on 3rd progression)
D|-13-11-10-----------10~~-|-13-11-10--------------------13-11-10--------------|
A|----------13-13~~11------|----------13-13-13--------------------13-13-13\11~-|
F|-------------------------|--------------------10-10-10-----------------------|
C|-------------------------|---------------------------------------------------|
G|-------------------------|---------------------------------------------------|
C|-------------------------|---------------------------------------------------|



1:20 - 2:30
Verse A2 x4
Pre-chorus x2
Chorus (with Gtr2)

Lead Brake
Gtr1
D|-------------------------------------------------------------------------|
A|-------------------------------------------------------------------------|
F|-------------------------------------------------------------------------|
C|-8-8-8-8-8-8-8-8-10-10-10-10-10-10-10-10-5-5-5-5-5-5-5-5-1-1-1-1-1-1-1-1-| x2
G|-8-8-8-8-8-8-8-8-10-10-10-10-10-10-10-10-5-5-5-5-5-5-5-5-1-1-1-1-1-1-1-1-|
C|-8-8-8-8-8-8-8-8-10-10-10-10-10-10-10-10-5-5-5-5-5-5-5-5-1-1-1-1-1-1-1-1-|
Gtr2 (tremelo picked)
D|-----------------10tr----11tr----13tr----10tr-------------------|
A|-11tr----13tr--------------------------------------------11tr---|
F|-------------------------------------------------12tr-----------|
C|----------------------------------------------------------------|
G|----------------------------------------------------------------|
C|----------------------------------------------------------------|

Bridge
Gtr1
D|-----------------------------------------------------------------|
A|-----------------------------------------------------------------|
F|-----------------------------------------------------------------|
C|-8-8-8-8-8-8-8-8-1-1-1-1-1-1-1-1-5-5-5-5-5-5-5-5-3-3-3-3-3-3-3-3-| x1
G|-8-8-8-8-8-8-8-8-1-1-1-1-1-1-1-1-5-5-5-5-5-5-5-5-3-3-3-3-3-3-3-3-|
C|-8-8-8-8-8-8-8-8-1-1-1-1-1-1-1-1-5-5-5-5-5-5-5-5-3-3-3-3-3-3-3-3-|
Gtr2
D|-----------------------------------------------------------|
A|-----------------------------------------------------------|
F|-15~-14~-10~--15-15-14-14--1010---15~-14~-10~--17-17-19-19-|
C|-x---x---x----x--x--x--x---x-x----x---x---x----x--x--x--x--| x2
G|-13~-12~-8~---13-13-12-12--8-8----13~-12~-8~---15-15-17-17-|
C|-----------------------------------------------------------|



Pre-breakdown
D|---------------------------------------------------|
A|---------------------------------------------------|
F|---------------------------------------------------|
C|-8---888-8--1-1--11111111--5--555-5--3-3--33333333-| x1.75
G|-8---888-8--1-1--11111111--5--555-5--3-3--33333333-|
C|-8---888-8--1-1--11111111--5--555-5--3-3--33333333-|
   *   *** *  * *  ********  *  *** *  * *  *******

Breakdown A
D|-----------------------------------------------------------|
A|-----------------------------------------------------------|
F|-----------------------------------------------------------|
C|-----------------------------------------------------------|
G|-0~0~-0~0~--0~000~0~-0~0~00000~0~-0~0~-0~000~0~-0~0~-0000~-|
C|-1~1~~1~1~~~1~111~1~~1~1~11111~1~-1~1~~1~111~1-~1~1~~1111~-|

Breakdown B
D|------------------------------------------------------|
A|------------------------------------------------------|
F|------------------------------------------------------|
C|------------------------------------------------------|
G|-0~0~-0~0~-00000~0~-0~0~--00000-0~-0~0~-00000~0~-0~0~-|
C|-0~0~-0~0~-00000~0~-0~0~--00000-0~-0~0~-00000~0~-0~0~-|

Vocal Chorus start

Instrumental Fade in

Chorus (with Gtr2)

Verse A2 x2

Gtr2 ending lick
D|-11-10-8----11-10-8-----|
A|---------11---------11--|
F|------------------------|
C|------------------------|
G|------------------------|
C|------------------------|

Perf
 
 
Despite My Deepest Fear - Firework :: indexed at Ultimate Guitar.
Firework tabs @ 911Tabs
People who played Despite My Deepest Fear - Firework also played these songs by Despite My Deepest Fear:
Firework Tab

Quick tip, so you can enjoy Firework even more:

YourChords.com Guitar Chords and Tabs Archive is currently indexing over 240'000 songs from 21'000+ different artists. And new chords just keep on coming in, so you will surely never run out of them.

Show us your talent, perform Firework!

Here you can post a video or audio performance. Tell me more ...
Where can we find your performance? Tell me more ...
Your comment:
Please, log in to post your performance.