Artists by letter: A B C D E F G H I J K L M N O P Q R S T U V W X Y Z 0-9

 
Diciembre
CEJILLA EN EL PRIMER TRASTE

Al poner cejilla en primer traste, los trastes del punteo empiezan
a contarse desde la cejilla

Espero que os guste ;)


INTRO

e-----10--9-------12--10--9------10--9-----
B------------10--------------9----------10-
G--9---------------------------------------
D------------------------------------------
A------------------------------------------
E------------------------------------------
             F#m             E          F#m

e--12--10--9------10--9-------12--10--9----
B-------------9----------10--------------9-
G------------------------------------------
D------------------------------------------
A------------------------------------------
E------------------------------------------
              E          F#m             E

e-----0-----0-
B--7-----3----
G-------------
D-------------
A-------------
E-------------
            A


F#m            E    F#m
Miras hacia un lado
            E       F#m
siempre rezagado
          E            A
No tengo tiempo de esperarte

       F#m   E
Tienes tanto
       F#m   E
que decir
        F#m  E
y yo cansado
    A
de oír.

PUENTE

e-0--2--4----4--2--4--5----5--4--5--7---7--5--7--9-
B--------------------------------------------------
G--------------------------------------------------
D--------------------------------------------------
A--------------------------------------------------
E--------------------------------------------------
        E             F#m           E            A


e-7--9--12----5-
B---------------
G---------------
D---------------
A---------------
E---------------
  A


ESTRIBILLO
             G    Bm
Ahí te encontré
             A
un héroe de otoño
        G   Bm
un soñador
           A
entre los locos
            G   Bm
me dices mejor
              A
te veo en diciembre
         G    Bm       A
ya volveré el año que viene


INTRO

e-----10--9-------12--10--9------10--9-----
B------------10--------------9----------10-
G--9---------------------------------------
D------------------------------------------
A------------------------------------------
E------------------------------------------
             F#m             E          F#m

e--12--10--9------10--9-------12--10--9----
B-------------9----------10--------------9-
G------------------------------------------
D------------------------------------------
A------------------------------------------
E------------------------------------------
              E          F#m             E

e-----0-----0-
B--7-----3----
G-------------
D-------------
A-------------
E-------------
            A

F#m              E
     Un paso detrás del otro
F#m                 E
     encuentras el sitio hermoso
F#m             E           A
     no he olvidado tus instantes.

            F#m      E
Saltar al vacío
            F#m      E
parece tu estilo
             F#m     E
las olas del mar
              A
te muestran el rumbo.


PUENTE

e-0--2--4----4--2--4--5----5--4--5--7---7--5--7--9-
B--------------------------------------------------
G--------------------------------------------------
D--------------------------------------------------
A--------------------------------------------------
E--------------------------------------------------
        E             F#m           E            A

e-7--9--12----5-
B---------------
G---------------
D---------------
A---------------
E---------------
  A


ESTRIBILLO
             G    Bm
Ahí te encontré
             A
un héroe de otoño
        G   Bm
un soñador
           A
entre los locos
            G   Bm
me dices mejor
              A
te veo en diciembre
         G    Bm       A
ya volveré el año que viene
 
 
Depedro - Diciembre :: indexed at Ultimate Guitar.
Diciembre tabs @ 911Tabs
People who played Depedro - Diciembre also played these songs by Depedro:
Te Sigo Sonando Chords, Tu Mediodia Tab, Como El Viento Chords, Llorona Chords, Miguelito Chords, Comanche Chords

Quick tip, so you can enjoy Diciembre even more:

You might want to transpose the song if it is too high or too low for you to sing. Just click the desired option while playing a song and all the chords will automatically be transponded into a new key.

Show us your talent, perform Diciembre!

Here you can post a video or audio performance. Tell me more ...
Where can we find your performance? Tell me more ...
Your comment:
Please, log in to post your performance.