Artists by letter: A B C D E F G H I J K L M N O P Q R S T U V W X Y Z 0-9

 
Kokken Tor
[Intro]

e|-------------------------------------------------------------------------|
B|----------------------------------------------------2--------------------|
G|-----------------2----------------------------------2--------------------|
D|----------2/4p2h4----4-4p2---------------2/4p2h4----2--------------------| x2
A|--4-4---------------------4------4-4----------------0--------------------|
E|--2-2----------------------------2-2-------------------------------------|


D                Bm (power chord)
Dette hendte meg en dag
D                Bm
Jeg var på en slags restaurant
A
Sammen med min kjæreste
D                        F#m
Og hennes far, han var sjømann

Riff played over F#m

e|--------------------------------|
B|--------------------------------|
G|----------------2---------------|
D|--4-4---2/4p2h4----4-4p2--------|
A|--4-4---------------------4-----|
E|--2-2---------------------------|

D                    Bm
Fra samme båt kom kokken Tor
D                    Bm
Og satte seg ned ved vårt bord
A
Og denne historien
D                   F#m
Den handler mest om ham

Repeat verse

Da far og datter begynte å snakke privat
Ble jeg sittende som Tors kamerat
Og det virket som han
Ikke tålte å være på land
For plutselig viste han neven sin
Og sa "du trenger mer disiplin"
Og jeg mislikte sterkt
Hans engasjement

Og Tor sa:
A           E              F#m   D
"Hei du jeg elsker deg din jævel
A           E              F#m   D
Du har så mye sensualitet
A           E              F#m   D
Men snart skal du få deg en på trynet
A           E
For stygge gutter er det
                           F#m (riff)
Verste som jeg vet"

Verse

Tor sa at han elsket meg
Og Tor sa at han hatet meg
Og jeg prøvde å slippe
Unna øynene hans

Verse

Min kjæreste hadde nok et dårlig instinkt
Jeg prøvde å gi henne hint og vink
Men hun og faren snakket
Stadig uten stans

Ref

Og Tor sa:
"Hei du jeg elsker deg din jævel
Du har så mye sensualitet
Men snart skal du få deg
En på trynet
For stygge gutter er det
Verste som jeg vet"

[Solo]

e|----------------------------------------------------------------------------|
B|----------------------------------------------------7~----------------------|
G|--------------------6------------------6--7p6----------6---6-9-7-6----------|
D|-------/7-7-7h9--9-----7------7-7h9--9--------9-7-------------------9--7----|
A|---------------------------9----------------------------------------------9~|
E|----------------------------------------------------------------------------|

e|----------------------------------------------------------------------------------------|
B|---------7~---7-9------------------7----------------------------------------7-7------7-7|
G|-------------------6----6-7--6~-----------------------------6---------------------------|
D|--7-9--------------------------7-----7--9b10br9---7------------7--9b10----------9b10----|
A|-----------------------------------------------------9----------------------------------|
E|----------------------------------------------------------------------------------------|

e|----------------------------------------------------------------------------|
B|----------7-----------------------------------------------------------------|
G|-------------6--------------------------------------------------------------|
D|---9b10--------7---9b10br9p7------------------------------------------------|
A|------------------------------9~~~------------------------------------------|
E|----------------------------------------------------------------------------|


Verse

Men endelig snudde faren seg og sa:
"Hvordan gåare det med dere 'a
Tor! Du må'kke plage guttungen
Med preiket ditt"
Men kokken sa at vi hygget oss
Men nå måtte han kaste loss
Og takk for praten det var
Jaggu hyggelig gitt

Ref

Og jeg sa:
"Hei Tor jeg synes du er en jævel
Du ha'kke mye sensualitet
Du burde faen meg hatt deg
En på trynet
Men det er vel allerede alt for sent

e|----5~----------2---5---2----------------------------|
B|----------5----------------5p2-----------------------|
G|--------------------------------4b5--2~~-------------|   x 4
D|-----------------------------------------------------|
A|-----------------------------------------------------|
E|-----------------------------------------------------|


e|----5~-5~-5~--3sb5--5-----2--2h4----------------------------------------------------------------|
B|-----------------------5---------5--2---3---2h3p2-------5----2h3p2--------5---2h3p2-------------|
G|--------------------------------------------------2-----------------2---------------2-----------|
D|------------------------------------------------------------------------------------------------|
A|------------------------------------------------------------------------------------------------|
E|------------------------------------------------------------------------------------------------|


e|-----2-----2---5-5~------12--9--------9h10p9-----------------------------------------------------------|
B|--5----5-5---5------------------10-----------10----9---------------------------------------------------|
G|-------------------------------------------------------9h119-------------------------------------------|
D|--------------------------------------------------------------11--9--11------9----11-9-----------------|
A|-------------------------------------------------------------------------12-----------12-9-12-9-12-12~-|
E|-------------------------------------------------------------------------------------------------------|


************************************
| h   Hammer-on
| p   Pull-off
| r   Release
| b   Bend
| br  Bend release
| /   Slide up
| ~   Vibrato
************************************
 
 
Delillos - Kokken Tor :: indexed at Ultimate Guitar.
Kokken Tor tabs @ 911Tabs
People who played Delillos - Kokken Tor also played these songs by Delillos:
Smak Av Honning Chords, Neste Sommer Chords, Neste Sommer Chords, Ut Chords, Glemte Minner Chords, Suser Avgarde Tab

Quick tip, so you can enjoy Kokken Tor even more:

After the registration (which takes just 10 seconds, remember?) you will be able to use your profile - your very own piece of YourChords.com.

Show us your talent, perform Kokken Tor!

Here you can post a video or audio performance. Tell me more ...
Where can we find your performance? Tell me more ...
Your comment:
Please, log in to post your performance.