Artists by letter: A B C D E F G H I J K L M N O P Q R S T U V W X Y Z 0-9

 
Le Brio
------------------------------------------------------------------------------------------------
Big Soul - Le Brio
------------------------------------------------------------------------------------------------
Tunning : Drop D
Tempo : 141 bpm

INTRO

E|-----------|--------------------|------------------------|-----------------------|
B|-----------|--------------------|------------------------|-----------------------|
G|-----------|--------------------|------------------------|-----------------------|
D|-----------|-0------------------|-0-----0----------------|-0-----0-----0---------|
A|-----------|-0------------------|-0-----0----------------|-0-----0-----0---------|
D|-----------|-0------------------|-0-----0----------------|-0-----0-----0---------|

RIFF

E|---------------------------------------|--------------------------------------|
B|---------------------------------------|--------------------------------------|
G|---------------------------------------|--------------------------------------|
D|-7---------7---5--7--0--7--7---10------|-5--7--7---7---5--7--0--7--7---10-----|
A|-7---------7---5--7--0--7--7---10------|-5--7--7---7---5--7--0--7--7---10-----|
D|-7---------7---5--7--0--7--7---10------|-5--7--7---7---5--7--0--7--7---10-----|

E|---------------------------------------|--------------------------------------|
B|---------------------------------------|--------------------------------------|
G|---------------------------------------|--------------------------------------|
D|-5--7--7---7---5--7--0--7--7---10------|-5--7--7---7---5--7--0--7--7---10-----|
A|-5--7--7---7---5--7--0--7--7---10------|-5--7--7---7---5--7--0--7--7---10-----|
D|-5--7--7---7---5--7--0--7--7---10------|-5--7--7---7---5--7--0--7--7---10-----|

E|---------------------------------------|--------------------------------------|
B|---------------------------------------|--------------------------------------|
G|---------------------------------------|--------------------------------------|
D|-7---------7---5--7--0--7--7---10------|-5--7--7---7---5--7--0--7--7---10-----|
A|-7---------7---5--7--0--7--7---10------|-5--7--7---7---5--7--0--7--7---10-----|
D|-7---------7---5--7--0--7--7---10------|-5--7--7---7---5--7--0--7--7---10-----|

E|---------------------------------------|--------------------------------------|
B|---------------------------------------|--------------------------------------|
G|---------------------------------------|--------------------------------------|
D|-5--7--7---7---5--7--0--7--7---10------|-5--7--7---7---5--7--0--7--7---10-----|
A|-5--7--7---7---5--7--0--7--7---10------|-5--7--7---7---5--7--0--7--7---10-----|
D|-5--7--7---7---5--7--0--7--7---10------|-5--7--7---7---5--7--0--7--7---10-----|

VERSE

E|----------------------|----------------------|----------------------|----------------------|
B|----------------------|----------------------|----------------------|----------------------|
G|-------7--------------|-------7--------------|-------7--------------|-------7--------------|
D|-------7--------------|-------7--------------|-------7--------------|-------7--------------|
A|-5-----5--------------|-5-----5--------------|-5-----5--------------|-5-----5--------------|
D|-0-----0--------------|-0-----0--------------|-0-----0--------------|-0-----0--------------|

E|----------------------|----------------------|----------------------|----------------------|
B|----------------------|----------------------|----------------------|----------------------|
G|-------7--------------|-------7--------------|-------7--------------|-------7--------------|
D|-------7--------------|-------7--------------|-------7--------------|-------7--------------|
A|-5-----5--------------|-5-----5--------------|-5-----5--------------|-5-----5--------------|
D|-0-----0--------------|-0-----0--------------|-0-----0--------------|-0-----0--------------|


SOLO

E|-------------------------------------|-------------------------------------|
B|-4--5--5---5----5---5--5---5---5--5--|-4--5--5---5----5---5--5---5---5--5--|
G|-4--5--5---5----5---5--5---5---5--5--|-4--5--5---5----5---5--5---5---5--5--|
D|-4--5--5---5----5---5--5---5---5--5--|-4--5--5---5----5---5--5---5---5--5--| 
A|-2--3--3---3----3---3--3---3---3--3--|-2--3--3---3----3---3--3---3---3--3--|
D|-------------------------------------|-------------------------------------|

E|-------------------------------------|-------------------------------------|
B|-4--5--5---5----5---5--5---5---5--5--|-4--5--5---5----5---5--5---5---5--5--|
G|-4--5--5---5----5---5--5---5---5--5--|-4--5--5---5----5---5--5---5---5--5--|
D|-4--5--5---5----5---5--5---5---5--5--|-4--5--5---5----5---5--5---5---5--5--| 
A|-2--3--3---3----3---3--3---3---3--3--|-2--3--3---3----3---3--3---3---3--3--|
D|-------------------------------------|-------------------------------------|


E|-11-12-12--12---12--12-12--12--12-12-|-11-12-12--12---12--12-12--12--12-12-|
B|-11-12-12--12---12--12-12--12--12-12-|-11-12-12--12---12--12-12--12--12-12-|
G|-11-12-12--12---12--12-12--12--12-12-|-11-12-12--12---12--12-12--12--12-12-| 
D|-------------------------------------|-------------------------------------|
A|-------------------------------------|-------------------------------------|
D|-------------------------------------|-------------------------------------|

E|-11-12-12--12---12--12-12--12--12-12-|-11-12-12--12---12--12-12--12--12-12-|
B|-11-12-12--12---12--12-12--12--12-12-|-11-12-12--12---12--12-12--12--12-12-|
G|-11-12-12--12---12--12-12--12--12-12-|-11-12-12--12---12--12-12--12--12-12-| 
D|-------------------------------------|-------------------------------------|
A|-------------------------------------|-------------------------------------|
D|-------------------------------------|-------------------------------------|

OUTRO

E|----------------------|----------------------|----------------------|
B|----------------------|----------------------|----------------------|
G|-------7--------------|-------7--------------|-------7--------------|
D|-------7--------------|-------7--------------|-------7--------------|
A|-5-----5--------------|-5-----5--------------|-5-----5--------------|
D|-0-----0--------------|-0-----0--------------|-0-----0--------------|

IN ORDER :
INTRO
RIFF
VERSE
RIFF
VERSE
RIFF
VERSE x2
SOLO
OUTRO

 
 
Big Soul - Le Brio :: indexed at Ultimate Guitar.
Le Brio tabs @ 911Tabs
People who played Big Soul - Le Brio also played these songs by Big Soul:
Sweet Thang Tab, Pick Up The Telephone Tab, Julene Tab, Burning Up The Freeway Tab, Love Crazy Tab, Lost My Girl Tab

Quick tip, so you can enjoy Le Brio even more:

If you don't really know how to deal with "Absus4" chord and his equally confusing brothers, just put the mouse cursor over them and you will be shown a helpful chord diagram.

Show us your talent, perform Le Brio!

Here you can post a video or audio performance. Tell me more ...
Where can we find your performance? Tell me more ...
Your comment:
Please, log in to post your performance.