Artists by letter: A B C D E F G H I J K L M N O P Q R S T U V W X Y Z 0-9

 
Boyfriend
Ashlee Simpson - Boyfriend :)

Intro
E---------------|
B---------------|
G--4-4--4-4--1--|
D---------------| 
A---------------|
E---------------|

E|------------------------------------|
B|------------------------------------|
G|-----4-4--4-4--1--------------------|
D|------------------2-2--4-4--4-4--2--|
A|-4-4--------------------------------|
E|------------------------------------|

E|------------------------|
B|------------------------|
G|-----4-4--4-4--1--------|
D|------------------2--2--|
A|-4-4--------------2--2--|
E|------------------0--0--|

Verse
E----------------------------------------|
B----------------------------------------|
G-----------4-4-4-4----------------------|
D--6-6-6-6--2-2-2-2--4-4-4-4--2-2-2-2----| x3
A--4-4-4-4-----------2-2-2-2--0-0-0-0----|
E----------------------------------------|

E-----------------------------|
B-----------------------------|
G-----------4-4-4-4-----------|
D--6-6-6-6--2-2-2-2--4-4-4-4--| 
A--4-4-4-4-----------2-2-2-2--|
E-----------------------------|

Chorus
E-----------------------------------------|
B-----------------------------------------|
G-----------444444444---------------------|
D--66666666-222222222-44444444--22222222--| x2
A--44444444-----------22222222--00000000--|
E-----------------------------------------|

After Chorus
E|------------------------|
B|------------------------|
G|-----4-4--4-4--1--------|
D|------------------2--2--|
A|-4-4--------------2--2--|
E|------------------0--0--|

Repeat Verse

Chorus 2
E-----------------------------------------|
B-----------------------------------------|
G-----------444444444---------------------|
D--66666666-222222222-44444444--22222222--| x3
A--44444444-----------22222222--00000000--|
E-----------------------------------------|

E----------------------------------------|
B----------------------------------------|
G-----------444444444--------------------|
D--66666666-222222222-44444444--2222-22--|
A--44444444-----------22222222--0000-00--|
E----------------------------------------|

After Chorus
e|-------------------------------------------|
B|-------------------------------------------|
G|-------11-11-11-11--8----------------------|
D|-------9--9--9--9---6---9-9---11-11-11--9--| x3
A|-11-11------------------7-7---9--9--9---7--|
E|-9--9--------------------------------------|

e|-----------------------------|
B|-----------------------------|
G|-------11-11-11-11--8--------|
D|-------9--9--9--9---6---9-9--|
A|-11-11------------------7-7--|
E|-9--9------------------------|

E|------------------|
B|------------------|
G|-----4-4--4-4--1--|
D|------------------|
A|-4-4--------------|
E|------------------|

Chorus 3
E-----------------------------------------|
B-----------------------------------------|
G-----------444444444---------------------|
D--66666666-222222222-44444444--22222222--| x5
A--44444444-----------22222222--00000000--|
E-----------------------------------------|

E----------------------------------------|
B----------------------------------------|
G-----------444444444--------------------|
D--66666666-222222222-44444444--2222-22--|
A--44444444-----------22222222--0000-00--|
E----------------------------------------|
 
 
Ashlee Simpson - Boyfriend :: indexed at Ultimate Guitar.
Boyfriend tabs @ 911Tabs

About the artist behind Boyfriend:

Ashlee Nicole Wentz, professionally known as Ashlee Simpson-Wentz (born Ashlee Nicole Simpson on October 3, 1984) is an American pop rock singer-songwriter, and occasional actress. Simpson-Wentz, who is the younger sister of pop singer Jessica Simpson, rose to prominence in mid-2004 through the success of her number-one debut album Autobiography and the accompanying reality series The Ashlee Simpson Show. Simpson-Wentz received widespread criticism when she used a pre-recorded vocal track on Saturday Night Live in October 2004. Following a North American concert tour and a film appearance, Simpson-Wentz released a second number-one album, I Am Me, in October 2005. Her third album, Bittersweet World, was released in April 2008.

Indexed at Wikipedia.

Show us your talent, perform Boyfriend!

Here you can post a video or audio performance. Tell me more ...
Where can we find your performance? Tell me more ...
Your comment:
Please, log in to post your performance.