Artists by letter: A B C D E F G H I J K L M N O P Q R S T U V W X Y Z 0-9

 
Skin
Beautiful, naked and exposing song. Perfect for a vaguely rasp voice and also very easy to play. Enjoy! :)

CAPO on 5th


INTRO:
|--------------------------------------------------------------------------------------|
|---0----1---------0------------------1----3------------------------------1------------|
|---0----0---------0----0----0--------0----0----------0----0----0---------0------0-----|
|---2----2---------5----0----4--------2----0----------0----0----2---------2------0-----|
|---2----3---------5----5----5--------3----2----------2----0----2---------3------2-----|
|-----------------------------------------------------3----2----0----------------3-----|

|-------------------------------------------------------------------------------------------------|
|-0------------------------1----------------------------------------------------------------------|
|-0------------------------0---------------------------0-------------0--------------------------0-|
|-2------------------------2---------------------------5-------------0--------------------------4-|
|-2------------------------3---------------------------5-------------5--------------------------5-|
|-0----------------------------------------------------0-------------0--------------------------0-|
     I am a man of vain,     feeling the same old pain. Never quite found what I’m looking for.

|------------------------------------------------------------------------------------------------|
|-0----------------------------------1-----------------------------------------------------------|
|-0----------------------------------0------------------------0-----------0-------------0--------|
|-2----------------------------------2------------------------5-----------0-------------4--------|
|-2----------------------------------3------------------------5-----------5-------------5--------|
|-0-----------------------------------------------------------0-----------0-------------0--------|
      I’m feeling the times of tide.  I never used to hide.     This ain’t feeling right.

|---------------------------------------------------------------|
|--------------------1------------------------------------------|
|--------------------0----------------------------0-------------|
|--------------------2----------------------------0-------------|
|--------------------3----------------------------2-------------|
|-------------------------------------------------3-------------|
  I’m filling up my cup (aah). I’m filling up my cup (aah)

|-----------------------------------------------------------------------|
|------------------------------------------------------1----------------|
|------------------------------------------------------0----------------|
|--X-------0--X--------0-------X----2------------------2----------------|
|--X-------2--X--------2-------X----2------------------3----------------|
|--X-------3--X--------2-------X----0-----------------------------------|
 ‘Cause -    We’re all looking for love. Only looking outside the skin.

|-------------------------------------------------------------------------------------|
|-------------------------------------------------------------------------------------|
|-------------------------------------------------------------------------------------|
|-------------0-----------0----------0--------------------0----------------2----------|
|-------------2-----------0----------2--------------------0----------------2----------|
|-------------3-----------2----------3--------------------2----------------0----------|
Only looking outside and in.                And we’re all looking for the same.

|--------------------------------------------------------------------------------------------|
|------------1-------------------------------------------------------------------------1-----|
|------------0-------------------------------------------------0-----------------------0-----|
|------------2-------------------------------0-----------0-----2-----------------------2-----|
|------------3-------------------------------2-----------0-----2-----------------------3-----|
|--------------------------------------------3-----------2-----0-----------------------------|
Only looking outside the skin, only looking outside and in.        I got you feeling down

|-------------------------------------------------------------------------------------|
|-------------------------------------------------------------------------------------|
|----------------------------------0--------------------0-----------------------0-----|
|----------------------------------5--------------------0-----------------------4-----|
|----------------------------------5--------------------5-----------------------5-----|
|----------------------------------0--------------------0-----------------------0-----|
  And I’m loosing controll, and I don’t wanna stay " I don’t wanna stay with you

|-------------------------------------------------------------------------------------------------------|
|---------------------------------1---------------------------------------------------------------------|
|-0-------------------------------0-----------------------------------0-----0------------------------0--|
|-2-------------------------------2-----------------------------------5-----0------------------------4--|
|-2-------------------------------3-----------------------------------5-----5------------------------5--|
|-0-------------------------------------------------------------------0-----0------------------------0--|
     I got you all up in here and I, I’m feeling that all is done and I, I don’t wanna lose control

|-------------------------------------------------------------------------------------------------------|
|------------------------1------------------------------------------------------------------------------|
|------------------------0----------------------0----------0-----------------0------------0-------------|
|------------------------2----------------------0----------0-----------------0------------2-------------|
|------------------------3----------------------2----------2-----------------0------------2-------------|
|----------------------------------------------------------3-----------------2------------0-------------|
      I’m filling up my cup. I’m filling up my cup, ‘cause. ‘Cause we’re all looking for love, yeah!

|----------------------------------------------------------------------|
|-----------------1----------------------------------------------------|
|-----------------0----------------------------------------------------|
|-----------------2-------------------------------0-----------0--------|
|-----------------3-------------------------------2-----------0--------|
|-------------------------------------------------3-----------2--------|
     Only looking outside the skin. Only looking outside and in

|----------------------------------------------------|
|----------------------------------------------------|
|-0---------------0--------------------0-------------|
|-0---------------0--------------------2-------------|
|-2---------------0--------------------2-------------|
|-3---------------2--------------------0-------------|
    And we’re all looking for the same 

|--------------------------------------------------------------------------------------|
|------------------1-------------------------------------------------------------------|
|------------------0-------------------------------------------------------------------|
|------------------2-----------------------------0--------------0----           -------|
|------------------3-----------------------------2--------------0---- LET RING  -------|
|------------------------------------------------3--------------2----           -------|
     Only looking outside the skin. Only looking outside and in

 
 
Comet Kid - Skin :: indexed at Ultimate Guitar.
Skin tabs @ 911Tabs
People who played Comet Kid - Skin also played these songs by Comet Kid:
Skin Tab, Psychopath Chords, Diamonds Chords, So Far Chords, When Im Dead Chords, Sail Chords

Quick tip, so you can enjoy Skin even more:

Try out the AutoScroller option ... It scrolls the page for you, so you can totally focus on nailing that solo. You can choose among different speeds using your mouse or your keyboard (keys 0, 1, 2 and 3).

Show us your talent, perform Skin!

Here you can post a video or audio performance. Tell me more ...
Where can we find your performance? Tell me more ...
Your comment:
Please, log in to post your performance.