Artists by letter: A B C D E F G H I J K L M N O P Q R S T U V W X Y Z 0-9

 
As I Am Tab
-------------------------------------------------------------------------------
			     AS I AM - Dream Theater
-------------------------------------------------------------------------------
Tabbed by: Barry Miles
Email: [email protected]

This is just a version aranged for a seven-string guitar, for those of you lucky enough to have one.

Tuning: BEADGbe

 Intro:
                 x4                    x4     PM----|                      
e|----------------||--------------------||---------------------------------|
b|----------------||--------------------||---------------------------------|
G|o--------------o||o------------------o||o--------------------------------|
D|-------5--5-----||--------------------||---------------------------------|
A|o-3----5--4----o||o-------3---3------o||o----------3---3----3------3-----|
E|--3-------------||--3---3---3---2-----||--3--3-3-3-------2------1--------|
B|--1-------------||--1---1---1---------||--1--1-1-1---1-----------------4-|

     PM---|                     x2
e|---------------------------------||
B|---------------------------------||
G|--------------------------------o||
D|---------------------------------||
A|----------3---3----3------------o||
E|-3--3-3-3-------2-----1--3-------||
B|-1--1-1-1---1------------1---4---||

 Verse:
                         |1.                      |2.
  PM------|                  PM---|                   PM---|
e|-----------------------|------------------------|--------------------------|
B|-----------------------|------------------------|--------------------------|
G|o----------------------|-----------------------o|-------------------------o|
D|-----------------------|------------------------|--------------------------|
A|o--------4-3-1-4-3-1-4-|-3-------4-3-1-4-3-1-3-o|-3-----------------------o|
E|-----------------------|------------------------|--------------------------|
B|-1-1-1-1---------------|---1-1-1----------------|---1-1-1--4-4-4---2-2-2---|

Prechorus:
                                    |1.2.3.   |4.
e|----------------------------------|---------|----------|
B|----------------------------------|---------|----------|
G|o---0---0----0----0------0---0----|-0---0--o|----------|
D|----------------------------------|---------|----------|
A|o---------------------------------|--------o|----------|
E|--3-------------1---4--3----------|---------|--6-5-4---|
B|------4---3----------------4----3-|---1-----|--4-3-2---|

Chorus:
                    |1.                        |2.
e|------------------|--------------------------|--------------------------|
B|------------------|--------------------------|--------------------------|
G|o-----------------|-------------------------o|-------------------------o|
D|------------------|--------------------------|--------------------------|
A|o-----------------|-----3-------------------o|------3----------4--4-4--o|
E|--3-------6---3---|-5-----3--4----6-5-4-1-3--|-5------3-----------------|
B|--1---1-3-4-----4-|-3--------2--2------------|-3---------2--2-----------|

Bridge:
                                 |1.                             |2. |3.
e|-------------------------------|-------------------------------|---|-------|
B|-------------------------------|-------------------------------|---|-------|
G|o------------------------------|------------------------------o|--o|-------|
D|-------------------------------|-------------------------------|---|-------|
A|o------------------------------|----------------------------6-o|--o|-------|
E|-------2-----------6-5-4-------|-----2-----------6-5-4----7----|---|-4-4-4-|
B|--1--------1-2-3-----------3-4-|-1-------1-2-3-----------------|---|-------|

Solo:
                  1/2                         1
e|----------------15b-15-13----13---13-------16b-16---13-15-13-----16-13-----|
B|----------16-13-----------16---------16-13------------------16-13-----16-13|
G|-------13------------------------------------------------------------------|
D|-13h15---------------------------------------------------------------------|
A|---------------------------------------------------------------------------|
E|---------------------------------------------------------------------------|
B|---------------------------------------------------------------------------|

e|-18-13-----16-13-----15-13---------------------------------------------------|
B|------16-13-----16-13-----16-13----------------------------------------------|
G|-------------------------------15-13-----------------------------------------|
D|------------------------------------15-15----------------------------15-14-13|
A|----------------------------------------------------13-12-11-15-14-13--------|
E|--------------------------------------------13-12-11-------------------------|
B|-----------------------------------------------------------------------------|

e|-------------------------------------------------13-12-11------------------|
B|-----------------------------------------13-12-11--------15-14-13----------|
G|-15-14-13------------------------15-14-13------------------------15-14-13--|
D|---------15-14-13--------13-12-11------------------------------------------|
A|-----------------15-14-13--------------------------------------------------|
E|---------------------------------------------------------------------------|
B|---------------------------------------------------------------------------|

e|---------13-12-11-19-18-16-19-18-16-19-18-16-19-18-16-19-18-16-19-18-16----|
B|-13-12-11------------------------------------------------------------------|
G|---------------------------------------------------------------------------|
D|---------------------------------------------------------------------------|
A|---------------------------------------------------------------------------|
E|---------------------------------------------------------------------------|
B|---------------------------------------------------------------------------|

e|-19-18-16-16-15-13-13-----16-15-13-13-----16-15-13-13-----16-15-13-13------|
B|---------------------16-13-----------16-13-----------16-13-----------16-13-|
G|---------------------------------------------------------------------------|
D|---------------------------------------------------------------------------|
A|---------------------------------------------------------------------------|
E|---------------------------------------------------------------------------|
B|---------------------------------------------------------------------------|
                                 1 1/2                  1
e|--------------------------------------------13-16-18-21b--20-19-18-16-18---|
B|-16-15-13-------13---------------------13-16-----------------------------18|
G|---------15-13---------------17-17b----------------------------------------|
D|--------------15--------13-15----------------------------------------------|
A|----------------------15---------------------------------------------------|
E|---------------------------------------------------------------------------|
B|---------------------------------------------------------------------------|

e|---------------------------------------------------------------------------|
B|---------------------------13-13--13-16-16-13-16-16-13-----13-13-----13-13-|
G|------13-13--13-15-15-13-15-----15--------------------15-15-----15-15------|
D|-13-15-----15--------------------------------------------------------------|
A|---------------------------------------------------------------------------|
E|---------------------------------------------------------------------------|
B|---------------------------------------------------------------------------|

e|---------------------------------------------------------------------------|
B|------13-16-13-------------------------------------------------------------|
G|-13-15--------15-13--------------------------------------------------------|
D|-------------------15-13---------------------------------------------------|
A|------------------------15----------------------13------13-15--13-15-16----|
E|-------------------------------13-15-16-13-15-16---15-16-----16------------|
B|---------------------------16----------------------------------------------|

e|---------------------------------------------------------------------------|
B|-----------------------------------------------------------13-----13-14--13|
G|----------------------------12-----12-13--12-13-15-12-13-15--13-15-----15--|
D|---------13-----13-15--13-15--13-15-----15---------------------------------|
A|-13-15-16--15-16-----16----------------------------------------------------|
E|---------------------------------------------------------------------------|
B|---------------------------------------------------------------------------|

e|---------------13-----13-15--13-15-16-13-18-15--15-18-15--15-18-15--15-----|
B|-14-16-13-14-16--14-16-----16-----------------18--------18--------18-------|
G|---------------------------------------------------------------------------|
D|---------------------------------------------------------------------------|
A|---------------------------------------------------------------------------|
E|---------------------------------------------------------------------------|
B|---------------------------------------------------------------------------|

e|-18-15--15-18-15--15-18-15--15-19-15--15-19-15--15-19-15--15-20-15--15-----|
B|------18--------18--------18--------18--------18--------18--------18-------|
G|---------------------------------------------------------------------------|
D|---------------------------------------------------------------------------|
A|---------------------------------------------------------------------------|
E|---------------------------------------------------------------------------|
B|---------------------------------------------------------------------------|

e|-20-15--15-20-15--15-20-15--15-20-15--15-20-15--15-18-15-14-15-18-15-14-15-|
B|------18--------18--------18--------18--------18---------------------------|
G|---------------------------------------------------------------------------|
D|---------------------------------------------------------------------------|
A|---------------------------------------------------------------------------|
E|---------------------------------------------------------------------------|
B|---------------------------------------------------------------------------|

e|-18-15-14-15-18-15-14-15-18-15-14-15-18-15-14-15-|-----------14-13-12--|
B|-------------------------------------------------|--16-13-16-----------|
G|-------------------------------------------------|o-------------------o|
D|-------------------------------------------------|---------------------| x8
A|-------------------------------------------------|o-------------------o|
E|-------------------------------------------------|---------------------|
B|-------------------------------------------------|---------------------|

        1                  1        1
e|---------------------------------------------------------------------------|
B|--------------------------------------------18-16----------------16-15-13--|
G|----------------------------17---15b-17-15-------17-15---------------------|
D|-----13b-15--15---------15b---17----------17----------18-17-17-------------|
A|-15--15----18--18-15-------------------------------------------------------|
E|--------------------18-----------------------------------------------------|
B|---------------------------------------------------------------------------|

e|------------------------------------------15-13--------13-15-13--16-15-13--|
B|---13-15-16-15-13-18-16-15--15-16-18-16-15-----16-15-16--------16----------|
G|-15-----------------------17-----------------------------------------------|
D|---------------------------------------------------------------------------|
A|---------------------------------------------------------------------------|
E|---------------------------------------------------------------------------|
B|---------------------------------------------------------------------------|

e|---13-15-16-15-13-18-16-15--15-16-18-16-15--16-18-20-----------------------|
B|-16-----------------------18--------------18-------------------------------|
G|---------------------------------------------------------------------------|
D|---------------------------------------------------------------------------|
A|---------------------------------------------------------------------------|
E|---------------------------------------------------------------------------|
B|---------------------------------------------------------------------------|

           x6
e|-----------|-------------------|
B|--1--------|-------------------|
G|o-0-------o|--6----6----6----6-|
D|-----------|--6----6----6----6-|
A|o---------o|--4----4----4----4-|
E|-----------|-------------------|
B|-----------|-------------------|

End on
e|---|
b|---|
G|---|
D|-5-|
A|-3-|
E|-3-|
B|---|

 
 
Dream Theater - As I Am Tab :: indexed at Ultimate Guitar.
As I Am tabs @ 911Tabs

Quick tip, so you can enjoy As I Am Tab even more:

You might want to transpose the song if it is too high or too low for you to sing. Just click the desired option while playing a song and all the chords will automatically be transponded into a new key.

Show us your talent, perform As I Am Tab!

Here you can post a video or audio performance. Tell me more ...
Where can we find your performance? Tell me more ...
Your comment:
Please, log in to post your performance.