Artists by letter: A B C D E F G H I J K L M N O P Q R S T U V W X Y Z 0-9

 
No Escape
-------------------------------------------------------------------------------
                             No Escape - Coldrain
-------------------------------------------------------------------------------
E-mail: [email protected]

Feel free to give me any corrections...This tab isn't perfect!

Tuning: C G C F A D

Intro (x2) :

Lead Guitar

D|---------------------------------------------------------------------------|
A|----0-7-10-0-7-10-0-7-10-0-7-10-0-7-10-0-10-12-0-8-12-0-8-12-0-8-12-0-8-12-|
F|---------------------------------------------------------------------------|
C|---------------------------------------------------------------------------|
G|---------------------------------------------------------------------------|
C|---------------------------------------------------------------------------|
                                                                                                      x2
D|------12-------------12-------------------------14-14-------14-14-15-15-14-14--------------------|
A|-0-10----14-14-10-10----14-14-10-10-14-14-10-10-------12-12-------------------12-12-15-15-12-12--|
F|-------------------------------------------------------------------------------------------------|  
C|-------------------------------------------------------------------------------------------------|
G|-------------------------------------------------------------------------------------------------|
C|-------------------------------------------------------------------------------------------------|

Rhythm Guitar x2

D|------------------------------------------------------------------------------------------------------|
A|------------------------------------------------------------------------------------------------------|
F|-----------------------------------10-10-10-10-10-10-10-10-10-10-10-10-10-10-9--9--9--9--9--9---------|
C|--7-7-7-7-7-7-7-7-8-8-8-8-8-8-8-8--8--8--8--8--8--8--8--8--7--7--7--7--7--7--7--7--7--7--7--7---------|
G|--5-5-5-5-5-5-5-5-5-5-5-5-5-5-5-5--8--8--8--8--8--8--8--8--7--7--7--7--7--7--7--7--7--7--7--7---------|
C|--5-5-5-5-5-5-5-5-5-5-5-5-5-5-5-5--8--8--8--8--8--8--8--8--7--7--7--7--7--7--7--7--7--7--7--7---------|
 
Verse  (There are many ways to play this part)

D|---------------------------------------------------------------------------------|
A|---------------------------------------------------------------------------------|
F|---------------------------------------------------------------------------------|
C|----0-5-7--------0-5-7--------0-5-7--------0-5-7--7-7-7---------------5-7-8------|
G|----0-5-7--------0-5-7--------0-5-7--------0-5-7--7-7-7---------5-7-8------------|
C|----0-5-7--------0-5-7--------0-5-7--------0-5-7--7-7-7---5-7-8------------------|

Breakdown (Pre-chorus) This is right after the verse (No down time)

D|----------------------------------|
A|----------------------------------|
F|----------------------------------|
C|---8-------7-------10-------7-8---|         x2
G|---8-------7-------10-------7-8---|
C|---8-0-0-0-7-0-0-0-10-0-0-0-7-8---|

And the last time :

D|---------------------------------------------------------------------------|
A|---------------------------------------------------------------------------|
F|---------------------------------------------------------------------------|
C|---8-------7-------10-------7-8-10-12--------------------------------------|
G|---8-------7-------10-------7-8-10-12--------------------------------------|
C|---8-0-0-0-7-0-0-0-10-0-0-0-7-8-10-12--------------------------------------|

Chorus :

D|--------------------------------------------------------------------------------------------------|
A|--------------------------------------------------------------------------------------------------|
F|--------------------------------------------------------------------------------------------------|
C|--0-0-0-0-0-0-0-0-3-3-3-3-3-3-3-3-/9-8-8-8-8-8-8-8-7-7-7-7-7-7-10-10-10-10-10-10------------------|
G|--0-0-0-0-0-0-0-0-3-3-3-3-3-3-3-3-/9-8-8-8-8-8-8-8-7-7-7-7-7-7-10-10-10-10-10-10------------------|
C|--0-0-0-0-0-0-0-0-3-3-3-3-3-3-3-3-/9-8-8-8-8-8-8-8-7-7-7-7-7-7-10-10-10-10-10-10------------------|

Pre-Verse : (Or post-chorus)

D|------------------------------------------------|
A|------------------------------------------------|
F|------------------------------------------------|
C|----0-5-7-------0-5-7--7-7-7--------------------|
G|----0-5-7-------0-5-7--7-7-7--------------------|
C|----0-5-7-x-x-x-0-5-7--7-7-7--------------------|

After that most of the song repeats itself excluding this part after the second chorus

D|-------------------------------------------------------------------------------------------|
A|----0-7-10-0-7-10-0-7-10-0-7-10-0-7-10-0-8-12-0-8-12-0-8-12-0-8-12-0-10-14-0-10-14-0-10-14-|
F|-------------------------------------------------------------------------------------------|   x3
C|-------------------------------------------------------------------------------------------|
G|-------------------------------------------------------------------------------------------|
C|-------------------------------------------------------------------------------------------|

D|--------------------------------------------12-----------12-----------------------14-14|
A|----0-7-10-0-7-10-0-7-10-0-8-12-0-8-12--0-10--14-14-10-10--14-14-10-10-14-14-10-10-----|
A|---------------------------------------------------------------------------------------|
F|---------------------------------------------------------------------------------------|  
C|---------------------------------------------------------------------------------------|
G|---------------------------------------------------------------------------------------|
C|---------------------------------------------------------------------------------------|

D|------14-14-15-15-14-14----------------------------------------------------|
A|-12-12-----------------12-12-15-15-----------------------------------------|
F|---------------------------------------------------------------------------|
C|---------------------------------------------------------------------------|
G|---------------------------------------------------------------------------|
C|---------------------------------------------------------------------------|

That sums it up! There is still a part that's bothering me so I might add or correct things in the future.
Enjoy playing this great song!

************************************

| /   slide up
| \   slide down
| h   hammer-on
| p   pull-off
| ~   vibrato
| +   harmonic
| x   Mute note
| b   Bend
| pb  Pre-bend
| br  Bend release
| pbr Pre-bend release
| brb Bend release bend

************************************
 
 
Coldrain - No Escape :: indexed at Ultimate Guitar.
No Escape tabs @ 911Tabs
People who played Coldrain - No Escape also played these songs by Coldrain:
Whole Acoustic Chords, Gone Acoustic Chords, No Escape Tab, Gone Chords, Runaway Tab, Gone

Quick tip, so you can enjoy No Escape even more:

YourChords.com Guitar Chords and Tabs Archive is currently indexing over 240'000 songs from 21'000+ different artists. And new chords just keep on coming in, so you will surely never run out of them.

Show us your talent, perform No Escape!

Here you can post a video or audio performance. Tell me more ...
Where can we find your performance? Tell me more ...
Your comment:
Please, log in to post your performance.