Artists by letter: A B C D E F G H I J K L M N O P Q R S T U V W X Y Z 0-9

 
Old Hat
Clare Dunn
Old Hat
Drop D tuning
No capo 



INTRODUCTION 

e|------------------|-----------|----------------------|
B|----------7-----7-|----5---5--|---3----3-----3-------|
G|------------------|-----------|----------------------|  x2
D|------5/7----7----|-5----5----|-4-----4----4---------|
A|------------------|-----------|----------------------|
D|---0--------------|-0---------|---0-------------0----| 

*********************************************************

| / = slide down

       e    E
| G* = x50007       

*********************************************************

Play Intro riff
Once upon a time
G
There was a girl 
G
Runnin' 'round in her daddy's old truck
G
Couldn't wait to see the world 
                    D
And shake off that old dust
Play Intro riff
And once upon a dream 
G
There was a land
G
Of bright lights and big city
G
Boys were fast
                      D
And the girls talked pretty

G*
Then one day 
G*
I got the call 

G
Now I got your old hat
            D
I put it on sometimes 
       G*            G          
When I wish I knew what you would do
D
Needing some advice 
                  G
I've got your old hat
                    D
And every now and then 
           G*                         G
I wear it backwards even though you hated that 
        D
And I swear I can almost hear you laugh 
      G
It's sun kissed 
          G
And it's sweat stained
          D            
It's too big and it's right brained
      G                                    D
But knowing that you're never ever coming back 
G                  G*
That'll never be, oh never be

Old hat

[Instrumental]

e|------------------|-----------|----------------------|
B|----------7-----7-|----5---5--|---3----3-----3-------|
G|------------------|-----------|----------------------|  x2
D|------5/7----7----|-5----5----|-4-----4----4---------|
A|------------------|-----------|----------------------|
D|---0--------------|-0---------|---0-------------0----| 

*************************************************************

| / = slide down

*************************************************************

Play Intro riff
The years, they roll on by
G
And when the days are black 
G
And the nights are blue
G
I've give anything 
                 D
Just to talk to you 

G*
Guess it's the little things 
G*
That get you through 


G
And I've got your old hat
             D
I put it on sometimes 
        G*          G
When I wish I knew what you would do
D
Needing some advice 
                   G
I've got your old hat 
                   D
And every now and then 
           G*                        G
I wear it backwards even though you hated that 
         D
And I swear I can almost hear you laugh 
      G
It's sun kissed 
           G
And it's sweat stained 
     D             
Too big, and it's right brained 
G                           
It's seen sun ups and sun downs
       D
It's beat up 
          D
And it's worn out
         G*                               D
And everybody says it's seen it's better days 
       G*                             D
And I let 'em throw everything else away 

But your old hat


PLAY INTRODUCTION RIFF AS OUTRO

e|------------------|-----------|---------------------|
B|----------7-----7-|----5---5--|---3----3-----3------|
G|------------------|-----------|---------------------|  x2
D|------5/7----7----|-5----5----|-4-----4----4--------|
A|------------------|-----------|---------------------|
D|---0--------------|-0---------|---0-------------0---| 

***********************************************************

| / = slide down

***********************************************************
 
 
Clare Dunn - Old Hat :: indexed at Ultimate Guitar.
Old Hat tabs @ 911Tabs
People who played Clare Dunn - Old Hat also played these songs by Clare Dunn:
Get Out Chords, Move On Chords, Tuxedo Chords, Tuxedo, Old Hat Tab, Move On

Quick tip, so you can enjoy Old Hat even more:

After the registration (which takes just 10 seconds, remember?) you will be able to use your profile - your very own piece of YourChords.com.

Show us your talent, perform Old Hat!

Here you can post a video or audio performance. Tell me more ...
Where can we find your performance? Tell me more ...
Your comment:
Please, log in to post your performance.