Artists by letter: A B C D E F G H I J K L M N O P Q R S T U V W X Y Z 0-9

 
Big Foot
 Chickenfoot - 'Big Foot'
First single from 'Chickenfoot III'
Eb Tuning
tabbed by jjhand for ultimate-guitar.com

Here's my take on the new song Bigfoot. It has a great beat like most 
Chickenfoot, and a nice heavy guitar by Satch. Solo was fixed 12/24/11.

Please rate/comment.  


Main Riff - played 2x
Eb|-------------------------|-------------------------|-------------------------|
Bb|-------------------------|-------------------------|-------------------------|
Gb|-------------------------|-------------------3-----|-------------------------|
Db|----3h5---------------3h5|---3h5-------------3-----|---3h5----------------3h5|
Ab|-------------------3h5---|-------------------1-----|-------------------3h5---|
Eb|-3------3--3--3--3-------|-3------3--3--3--3-------|-3------3--3--3--3-------|



2 parts for riff ending -

    original guitar
Eb|-----------------------------| add mutes throughout
Bb|-----------------------------| especially on last note
Gb|------3-------------12-----9-|
Db|----5------8-10--10-----10---|
Ab|---------------8-------------| 
Eb|-3------6-------------8------|
  |
  | overdub
Eb|-3------3------3------3------|
Bb|-3------3------3------3------|
Gb|-3------3------5------5------|
Db|-----------------------------|
Ab|-----------------------------|
Eb|-----------------------------|




Verse - played 2x with PM's throughout

Eb|--------------------------|-------------------------|--------------------------|
Bb|--------------------------|--------------------3----|-3_____-3-----------------|
Gb|--------------------------|--------------------3----|-3_____-3-----------------|
Db|--------------------------|-------------------------|--------------------------|
Ab|--------------------------|-------------------------|--------------------------|
Eb|-3--3--3--3--3--3--3-3-3-3|-3-3-3--3--3--3--3------3|----3-3---3--3--3--3-3-3-3|

1. "Wake up in the mornin   In the middle of the night   flash by the mirror, makin"
2. "Can't do it on my own   on the back of your neck   in between your legs, baby"


Eb|-------------------------------|
Bb|-------------------------------|
Gb|-------------------------------|
Db|-------------------------------|
Ab|-------------------------------|
Eb|-3---3-3-/6--6-6-1--1-1-0--0-0-|

1 "sure I'm lookin' right,     uh"
2 "you won't forget me, nah"





 Pre Chorus/Chorus
Eb|--------------------------|----------------------------|
Bb|--------------------------|----------------------------|
Gb|--------------------------|----------------------------|
Db|-5--5--7--7--5----5-5-5-5-|---------------------3h5----|
Ab|-3--3--3--3--3----3-3-3-3-|-8--8--8--8--5-3h4h5--------|
Eb|--------------------------|-6--6--6--6--3-----------3--|

  "Don't you worry,      its gonna be alright"

Eb|--------------------------|----------------------------|
Bb|--------------------------|----------------------------|
Gb|-------------3--3---------|----------------------------|
Db|-5--5--7--7--5--5--7------|---------------------3h5----|
Ab|-3--3--3--3--3--3--3--x-x-|-8--8--8--8--5-3h4h5--------|
Eb|--------------------------|-6--6--6--6--3-----------3--|

  "I'm in a hurry  I'm gonna drive all night"

Eb|--------------------------|----------------------------|
Bb|--------------------------|----------------------------|
Gb|--------------------------|----------------------------|
Db|-5--5--7--7--5--5--7-7----|---------------------3h5----|
Ab|-3--3--3--3--3--3--3-3--3-|-8--8--8--8--5-3h4h5--------|
Eb|--------------------------|-6--6--6--6--3-----------3--|

  "I'll be there in the morning, you can bet your ass"

Eb|--------------------------|----------------------------|
Bb|--------------------------|-8-----8-----8-----8--------|
Gb|-7-----7-----7-----7------|-10----10----10----10-------|
Db|-7-----7-----7-----7------|-10----10----10----10-------|
Ab|-5-----5-----5-----5------|-8-----8-----8-----8--------|
Eb|--------------------------|----------------------------|

 "I've got my hands on the wheel and my bigfoot on the gas"





Play Main Riff again


Play Verse Again similarly for Verse 2


Play PreChorus/Chorus again - same lyrics


(1:49) Play Main Riff




  Break before Solo
Eb|--------------------------------|
Bb|--------------------------------|
Gb|--------------------------------|
Db|--------------------------------| played 2x
Ab|--------------------------------|
Eb|---3-6-3-6-3---3-6-6-3-6--3-6-3-|

Eb|---------------------------------|
Bb|---------------------------------|
Gb|---------------------------------|
Db|-----0---0-------0-0---0_----0---| played 2x (2 guitars)
Ab|---1-1-1-1-1---1-1-1-1-1_--1-1-1-|     no ringing
Eb|---3---3---3---3-----3-----3---3-|


  this part has harmonized overdubs - multiple guitars or harmonizer for sure
Eb|---------------------------------|---------------------------------|
Bb|---------------------------------|---------------------------------|
Gb|---------------------------------|-----2---2-------2-2---2-----2---|
Db|-----3---3-------3-3---3-----3---|---3-3-3-3-3---3-3-3-3-3---3-3-3-|
Ab|---5---5---5---5-----5-----5---5-|---5---5---5---5-----5-----5---5-|
Eb|---------------------------------|---------------------------------|

Eb|---------------------------------|-----0---0-------0-0---0-----0---|
Bb|-----1---1-------1-1---1-----1---|---1-1-1-1-1---1-1-1-1-1---1-1-1-|
Gb|---2-2-2-2-2---2-2-2-2-2---2-2-2-|---2-2-2-2-2---2-2-2-2-2---2-2-2-|
Db|---3-3-3-3-3---3-3-3-3-3---3-3-3-|---3-3-3-3-3---3-3-3-3-3---3-3-3-|
Ab|---5---5---5---5-----5-----5---5-|---5---5---5---5-----5-----5---5-|
Eb|---------------------------------|---------------------------------|



Solo - 

Eb|-11p8p6-11p8p6-11p8p6-11p8p6-11p8p6-11p8p6-11p8p6-11p8p6-|
Bb|---------------------------------------------------------|
Gb|---------------------------------------------------------|
Db|---------------------------------------------------------|
Ab|---------------------------------------------------------|
Eb|---------------------------------------------------------|

Eb|-11p8p6-11p8p6-11p8p6-----------------------------------|
Bb|----------------------6h9h11----------------------------|
Gb|-----------------------------7h8h10-7h8h10--------------|
Db|------------------------------------------7h8h10-7h8h10-|
Ab|--------------------------------------------------------|
Eb|--------------------------------------------------------|

Eb|---------------------------------|-------------------------------------8-|
Bb|---------------------------------|--------------8~----8-8---8-8-------8--|
Gb|---10\8~-------------------------|--------------8~----8-8---8-8--10b12---|
Db|-----------10-8---8--------------|--------8-10------10-------------------|
Ab|-12------------10--10-9-8--------|-8--8-10----10-------------------------|
Eb|-------------------------11-8-11-|--11-----------------------------------|

Eb|------8------------13b15______--|-b15-13-11-13b15r13-11-13b15-b15~-----|
Bb|-11b13-11b13--------------------|--------------------------------------|
Gb|--------------------------------|--------------------------------------|
Db|--------------------------------|--------------------------------------|
Ab|--------------------------------|--------------------------------------|
Eb|--------------------------------|--------------------------------------|


Eb|------------------------------|-20b23r20---20b23~~~~~~-------------|
Bb|-16---16-----16---16---16~----|------------------------------------|
Gb|-17---17--17-17---17---17~----|------------------------------------|
Db|------------------------------|------------------------------------|
Ab|------------------------------|------------------------------------|
Eb|------------------------------|------------------------------------|



Play Verse Again

Play Chorus Again

Play Main Riff 2x

Play the harmonized part in the Break section to end the song




KEY
************************************

| /   slide up
| \   slide down
| h   hammer-on
| p   pull-off
| ~   vibrato
| +   harmonic
| x   Mute note
| b   Bend
| r   Bend release

************************************
 
 
Chickenfoot - Big Foot :: indexed at Ultimate Guitar.
Big Foot tabs @ 911Tabs

Quick tip, so you can enjoy Big Foot even more:

Try out the AutoScroller option ... It scrolls the page for you, so you can totally focus on nailing that solo. You can choose among different speeds using your mouse or your keyboard (keys 0, 1, 2 and 3).

Show us your talent, perform Big Foot!

Here you can post a video or audio performance. Tell me more ...
Where can we find your performance? Tell me more ...
Your comment:
Please, log in to post your performance.