Artists by letter: A B C D E F G H I J K L M N O P Q R S T U V W X Y Z 0-9

 
Terrorist Synthesizer
[Intro]


e|------------------------|-------------------------------|
B|------------------------|-------------------------------|
G|------------------------|-------------------------------|
D|------------------------|-------------------------------|
A|-----4----------1-------|-------------------------------|
E|-5-5---5----2-2---2-(x3)|---3-3-3-3-3--0-0-0--(x1)------| 


e|---5--5--5--5---2--2--2--2------------------------------|
B|---5--5--5--5---2--2--2--2------------------------------|
G|---6--6--6--6---3--3--3--3----------------(x4)----------|
D|---7--7--7--7---4--4--4--4------------------------------|
A|---7--7--7--7---4--4--4--4------------------------------|
E|---5--5--5--5---2--2--2--2------------------------------|


[Verse]


e|-------------------------|------------------------------|
B|-------------------------|------------------------------|
G|-------------------------|------------------------------|
D|-------------------------|------------------------------|
A|-----4----------1--------|------------------------------|
E|-5-5---5----2-2---2-(x15)|---3-3-3-3-3--0-0-0--(x1)-----|


[Pre-Chorus]


e|---3--------------4-----------------------------|
B|---3--------------4-----------------------------|
G|---4---(x8)-------5---(x8)----------------------|
D|---5--------------6-----------------------------| Repeat this twice and 
A|---5--------------6-----------------------------| then chorus 
E|---3--------------4-----------------------------|


[Chorus]


e|---5--5--5--5---2--2--2--2----------------------|
B|---5--5--5--5---2--2--2--2----------------------|
G|---6--6--6--6---3--3--3--3----------------------|
D|---7--7--7--7---4--4--4--4----------(x12)-------| 
A|---7--7--7--7---4--4--4--4----------------------|
E|---5--5--5--5---2--2--2--2----------------------|


[Just bass and drums until 2:01]


[verse]


e|-------------------------|---------------------------|
B|-------------------------|---------------------------|
G|-------------------------|---------------------------|
D|-------------------------|---------------------------|
A|-----4----------1--------|---------------------------|
E|-5-5---5----2-2---2-(x7)-|---3-3-3-3-3--0-0-0--(x1)--|


[Pre-Chorus]


e|---3--------------4-----------|
B|---3--------------4-----------|
G|---4---(x8)-------5---(x8)----|
D|---5--------------6-----------| Repeat this twice and 
A|---5--------------6-----------| then chorus 
E|---3--------------4-----------|


[Chorus]


e|---5--5--5--5---2--2--2--2------------------|
B|---5--5--5--5---2--2--2--2------------------|
G|---6--6--6--6---3--3--3--3------------------|
D|---7--7--7--7---4--4--4--4----------(x8)----| 
A|---7--7--7--7---4--4--4--4------------------|
E|---5--5--5--5---2--2--2--2------------------|


[Bridge]


e|---5--5--5--5---2--2--2--2------------------------| After this play A Barre Chord 4 times followed by
B|---7--7--7--7---2--2--2--2------------------------| F# Barre Chord 4 times as in the chorus, and then repeat
G|---7--7--7--7---3--3--3--3------------------------| by playing these chords on the left again, followed by
D|---7--7--7--7---4--4--4--4--(x2)------------------| the chorus chords again.
A|---5--5--5--5---4--4--4--4------------------------|
E|---5--5--5--5---2--2--2--2------------------------|


[Don't play until 3:25]


[Chorus and outro] - Play this repeatedly until end of song.


e|---5--5--5--5---2--2--2--2---------------------|
B|---5--5--5--5---2--2--2--2---------------------|
G|---6--6--6--6---3--3--3--3---------------------|
D|---7--7--7--7---4--4--4--4---------------------| 
A|---7--7--7--7---4--4--4--4---------------------|
E|---5--5--5--5---2--2--2--2---------------------|

 
 
Cabbage - Terrorist Synthesizer :: indexed at Ultimate Guitar.
Terrorist Synthesizer tabs @ 911Tabs
People who played Cabbage - Terrorist Synthesizer also played these songs by Cabbage:
Dinner Lady, Gibraltar Ape

Quick tip, so you can enjoy Terrorist Synthesizer even more:

You might want to transpose the song if it is too high or too low for you to sing. Just click the desired option while playing a song and all the chords will automatically be transponded into a new key.

Show us your talent, perform Terrorist Synthesizer!

Here you can post a video or audio performance. Tell me more ...
Where can we find your performance? Tell me more ...
Your comment:
Please, log in to post your performance.