Artists by letter: A B C D E F G H I J K L M N O P Q R S T U V W X Y Z 0-9

 
Gibraltar Ape
[Riff]
e|------------------------------------|-----------------------------------------|
B|------------------------------------|-----------------------------------------|
G|------------------------------------|-----------------------------------------|
D|------------------7-7-7-7-8/9-7-5-7-|--------3--------7-7-7-7-8/9-7-5-7-------|
A|--4-2-4----4-2-0--------------------|--4-2-4---4-2-0--------------------------|
E|2--------1--------------------------|2----------------------------------------|

[Verse]
e|---|---|----------|------------------------------------------------------------|
B|---|---|----------|------------------------------------------------------------|
G|---|---|----------|------------------------------------------------------------|
D|---|---|16-15-12--|16-15-12----------------------------------------------------|
A|---|---|16-15-12--|16-15-12----------------------------------------------------|
E|---|---|----------|------------------------------------------------------------|

[Chorus]
e|--------------------------------|-------------------------------------------|
B|--------------------------------|-------------------------------------------|
G|--------------------------------|-------------------------------------------|
D|2-2-2-2-2-2-2-2-6-6-6-6-6-6-6-6-|----------------7-7-7-7-7-7-7-7------------|
A|0-0-0-0-0-0-0-0-4-4-4-4-4-4-4-4-|4-4-4-4-3-3-3-3-5-5-5-5-5-5-5-5------------|
E|--------------------------------|2-2-2-2-1-1-1-1----------------------------|

[Riff]
e|------------------------------------|-----------------------------------------|
B|------------------------------------|-----------------------------------------|
G|------------------------------------|-----------------------------------------|
D|------------------7-7-7-7-8/9-7-5-7-|--------3--------7-7-7-7-8/9-7-5-7-------|
A|--4-2-4----4-2-0--------------------|--4-2-4---4-2-0--------------------------|
E|2--------1--------------------------|2----------------------------------------|

[Verse]
e|---|---|----------|------------------------------------------------------------|
B|---|---|----------|------------------------------------------------------------|
G|---|---|----------|------------------------------------------------------------|
D|---|---|16-15-12--|16-15-12----------------------------------------------------|
A|---|---|16-15-12--|16-15-12----------------------------------------------------|
E|---|---|----------|------------------------------------------------------------|

[Bridge]
e|---------------------------------------------------------------------------|
B|---------------------------------------------------------------------------|
G|---------------------------------------------------------------------------|
D|14---11-14--11-14----------------------------------------------------------|
A|---------------------------------------------------------------------------|
E|---------------------------------------------------------------------------|

[Chorus] played twice this time
e|--------------------------------|-------------------------------------------|
B|--------------------------------|-------------------------------------------|
G|--------------------------------|-------------------------------------------|
D|2-2-2-2-2-2-2-2-6-6-6-6-6-6-6-6-|----------------7-7-7-7-7-7-7-7------------|
A|0-0-0-0-0-0-0-0-4-4-4-4-4-4-4-4-|4-4-4-4-3-3-3-3-5-5-5-5-5-5-5-5------------|
E|--------------------------------|2-2-2-2-1-1-1-1----------------------------|

[Solo]
e|--------------|-------------------------|------------------------------------|
B|--------------|-------------------------|---------------------17-------------|
G|--------------|-------------------14-16-|17b18-18-18-18-18-18----18-18-17br--|
D|12b-12b-14----|12b-12b-14--14-16--------|------------------------------------|
A|--------------|-------------------------|------------------------------------|
E|--------------|-------------------------|------------------------------------|

e|--------------------------|-----------------------------|--------------------|
B|--------------------------|-----------------------------|--------------------|
G|17br-18-17-18-17-18-18-18-|-----------------------------|-------7-------------|
D|--------------------------|12b-12b--10b-10b-10b-10b-10--|-4--3--7------------|
A|--------------------------|-----------------------------|-4--3--5------------|
E|--------------------------|-----------------------------|-2--1---------------|

[Outro] play until end
            guitar 1
e|--------------------------------|
B|--------------------------------|
G|----------------7-7-7-7-7-7-7-7-|
D|4-4-4-4-3-3-3-3-7-7-7-7-7-7-7-7-|
A|4-4-4-4-3-3-3-3-5-5-5-5-5-5-5-5-|
E|2-2-2-2-1-1-1-1-----------------|
            guitar 2
e|------------------------------------|-----------------------------------------|
B|------------------------------------|-----------------------------------------|
G|------------------------------------|-----------------------------------------|
D|------------------7-7-7-7-8/9-7-5-7-|--------3--------7-7-7-7-8/9-7-5-7-------|
A|--4-2-4----4-2-0--------------------|--4-2-4---4-2-0--------------------------|
E|2--------1--------------------------|2----------------------------------------|

end with single d powerchord
e|-----|
B|-----|
G|7----|
D|7----|
A|5----|
E|-----|

************************************

| /   Slide up
| b   Bend
| br  Bend release

************************************
 
 
Cabbage - Gibraltar Ape :: indexed at Ultimate Guitar.
Gibraltar Ape tabs @ 911Tabs
People who played Cabbage - Gibraltar Ape also played these songs by Cabbage:
Dinner Lady, Terrorist Synthesizer

Quick tip, so you can enjoy Gibraltar Ape even more:

After the registration (which takes just 10 seconds, remember?) you will be able to use your profile - your very own piece of YourChords.com.

Show us your talent, perform Gibraltar Ape!

Here you can post a video or audio performance. Tell me more ...
Where can we find your performance? Tell me more ...
Your comment:
Please, log in to post your performance.