Artists by letter: A B C D E F G H I J K L M N O P Q R S T U V W X Y Z 0-9

 
Wet Hands
E|-----------------|-------0---------|-----------------|-------0---------|
B|-------0-2-0-----|-----2---2-------|-------0-2-0-----|-----2---2-------|
G|-----2-------2---|---2-------2-----|-----2-------2---|---2-------2-----|
D|---2-----------2-|-0---------------|---2-----------2-|-0---------------|
A|-0---------------|-----------------|-0---------------|-----------------|
E|-----------------|-----------------|-----------------|-----------------|


E|-4-----------5---|-------0-----0-2-|-4-----------7-9-|-------0-------0-|
B|---------2-------|-7---------------|---------2-------|---7-------------|
G|-----2-4---4-2---|-----6---6-------|-----2-4---4-----|-----6---6---6---|
D|---2-----------2-|---7-------7-----|---2---------7---|---7-------7-----|
A|-0---------------|-5---------------|-0-------------7-|-5---------------|
E|-----------------|-----------------|-----------------|-----------------|


E|-3-----2---------|-----------------|-3---2-----------|---------------5-|
B|---------3-----0-|-----------------|---------3-----0-|-----------------|
G|---------2---2---|---------2-------|---------2---2---|---------2-----2-|
D|-----0-4---4-0---|-----0-4---------|-----0-4---4-0---|-----0-4---------|
A|---2-----------2-|---2-------------|---2-----------2-|---2-------------|
E|-3---------------|-3---------------|-3---------------|-3---------------|


E|-0---------------|-----------0-----|-------------0-2-|-----------------|
B|-------0-2-0-----|-------0-2-----2-|-3-----2---------|---3-----2---0-2-|
G|-----2-------2---|-----2-------2---|-4-------2-------|-------2---------|
D|-2-2-----------2-|---2-------------|---0-4-----4-2-4-|---0-4-----------|
A|-0---------------|-0---------------|-2---------------|-2---------------|
E|-----------------|-----------------|-----------------|-----------------|


E|-----------2-----|-----------------|-----------------|-----------------|
B|-3---2-3---------|-2-----------0---|-0---------------|-----------------|
G|---------2-------|-2-------------2-|---------1-------|---------1-------|
D|-----0-4---------|-2---------------|-------2---2-----|-------2---2-----|
A|---2-------------|-0---------------|-----2-------2---|-----2-----------|
E|-3---------------|-----------------|-0-4-----------4-|-0-4-------------|


E|-3-2-0---0---0-2-|---------5-------|-4-0-------------|-----------------|
B|-------3---3-----|---5-----2-------|-----0-----------|-0---------------|
G|---------2-------|-------2---4-2---|-------1---------|---1-------------|
D|-----0-4---4-0---|-----2---------2-|-------2-2-------|-----2-----------|
A|---2-----------2-|-0-4-------------|-----2-------2---|-----2-2---------|
E|-3---------------|-----------------|-0-4-----------4-|-0-4-----<12>----|
 
 
C418 - Wet Hands :: indexed at Ultimate Guitar.
Wet Hands tabs @ 911Tabs
People who played C418 - Wet Hands also played these songs by C418:
Minecraft Tab, Wet Hands Minecraft Tab, Dry Hands Tab, Piano 2 Tab, Danny Tab, Wet Hands Minecraft Tab

Quick tip, so you can enjoy Wet Hands even more:

YourChords.com Guitar Chords and Tabs Archive is currently indexing over 240'000 songs from 21'000+ different artists. And new chords just keep on coming in, so you will surely never run out of them.

Show us your talent, perform Wet Hands!

Here you can post a video or audio performance. Tell me more ...
Where can we find your performance? Tell me more ...
Your comment:
Please, log in to post your performance.