Artists by letter: A B C D E F G H I J K L M N O P Q R S T U V W X Y Z 0-9

 
Lexquisite Douleur
[0.00 - 0.22]

E |---------------------------------------------------------------------------------------
B |---------------------------------------------------------------------------------------
G |---------------------------------------------------------------------------------------
D |---5-5-5-5-5-5---7-7-7-7-7-7---9-9-9-9-9-9---4-4-4-4-4-4-4---5-5-5-5-5-5---2-2-2-2-2-2-
A |---5-5-5-5-5-5---7-7-7-7-7-7---9-9-9-9-9-9---4-4-4-4-4-4-4---5-5-5-5-5-5---2-2-2-2-2-2-
D |---5-5-5-5-5-5---7-7-7-7-7-7---9-9-9-9-9-9---4-4-4-4-4-4-4---5-5-5-5-5-5---2-2-2-2-2-2-

E |-----------------------------
B |-----------------------------
G |-----------------------------
D |---9-9-9-9-9-9---9-9-9-9-9-9-
A |---9-9-9-9-9-9---9-9-9-9-9-9-
D |---9-9-9-9-9-9---9-9-9-9-9-9-


E |--------------------------------------------------------------------------------------
B |---------------------------------------------------------------------------------------
G |---------------------------------------------------------------------------------------
D |---5-5-5-5-5-5---7-7-7-7-7-7---9-9-9-9-9-9---4-4-4-4-4-4-4---5-5-5-5-5-5---2-2-2-2-2-2-
A |---5-5-5-5-5-5---7-7-7-7-7-7---9-9-9-9-9-9---4-4-4-4-4-4-4---5-5-5-5-5-5---2-2-2-2-2-2-
D |---5-5-5-5-5-5---7-7-7-7-7-7---9-9-9-9-9-9---4-4-4-4-4-4-4---5-5-5-5-5-5---2-2-2-2-2-2-

E |-----------------------------
B |-----------------------------
G |-----------------------------
D |---9-9-9-9-9-9---7-7-7-7-7-7-
A |---9-9-9-9-9-9---7-7-7-7-7-7-
D |---9-9-9-9-9-9---7-7-7-7-7-7-



[0.44-1.41]

E |-------------------------------------------------------------------------
B |-------------------------------------------------------------------------
G |-------------------------------------------------------------------------
D |---9-9-9-9-9-9-9-9---0-0-0-0-0-0-0-0---5-5-5-5-5-5-5-5---7-7-7-7-7-7-7-7-
A |---9-9-9-9-9-9-9-9---0-0-0-0-0-0-0-0---5-5-5-5-5-5-5-5---7-7-7-7-7-7-7-7-
D |---9-9-9-9-9-9-9-9---0-0-0-0-0-0-0-0---5-5-5-5-5-5-5-5---7-7-7-7-7-7-7-7- X4

E |----------------------------------------------------------------------------------------------------
B |----------------------------------------------------------------------------------------------------
G |----------------------------------------------------------------------------------------------------
D |---X-X-X-X---9---9-9-9-9---X-X-X-X---9---X-X--9-9-9---7-7-7---X-X-X-X---5---5-5-5-5---X-X-X-X---5---
A |---X-X-X-X---9---9-9-9-9---X-X-X-X---9---X-X--9-9-9---7-7-7---X-X-X-X---5---5-5-5-5---X-X-X-X---5---
D |---X-X-X-X---9---9-9-9-9---X-X-X-X---9---X-X--9-9-9---7-7-7---X-X-X-X---5---5-5-5-5---X-X-X-X---5--- X3

[1.55-2.21]

E |-------------------------------------------------------------------------
B |-------------------------------------------------------------------------
G |-------------------------------------------------------------------------
D |---9-9-9-9-9-9-9-9---0-0-0-0-0-0-0-0---5-5-5-5-5-5-5-5---7-7-7-7-7-7-7-7-
A |---9-9-9-9-9-9-9-9---0-0-0-0-0-0-0-0---5-5-5-5-5-5-5-5---7-7-7-7-7-7-7-7-
D |---9-9-9-9-9-9-9-9---0-0-0-0-0-0-0-0---5-5-5-5-5-5-5-5---7-7-7-7-7-7-7-7- X3

E |----------------------------------------------------------------------------------------------------------
B |----------------------------------------------------------------------------------------------------------
G |----------------------------------------------------------------------------------------------------------
D |---9-9-9-9-9-9-9-9---0-0-0-0-0-0-0-0---5-5-5-5-5-5-5-5---7-7-7-7-7-7-7-7---7-7-7-7-7-7-7-7-7-7-7-7-7-7-7-7
A |---9-9-9-9-9-9-9-9---0-0-0-0-0-0-0-0---5-5-5-5-5-5-5-5---7-7-7-7-7-7-7-7---7-7-7-7-7-7-7-7-7-7-7-7-7-7-7-7
D |---9-9-9-9-9-9-9-9---0-0-0-0-0-0-0-0---5-5-5-5-5-5-5-5---7-7-7-7-7-7-7-7---7-7-7-7-7-7-7-7-7-7-7-7-7-7-7-7


[3.06-3.28]

E |---------------------------------------------------------------------------
B |---------------------------------------------------------------------------
G |---------------------------------------------------------------------------
D |---9-9-9-9-9-9-9-9---7-7-7-7-7-7-7-7---9-9-9-9-9-9-9-9---7-7-7-7-7-7-7-7---
A |---9-9-9-9-9-9-9-9---7-7-7-7-7-7-7-7---9-9-9-9-9-9-9-9---7-7-7-7-7-7-7-7---
D |---9-9-9-9-9-9-9-9---7-7-7-7-7-7-7-7---9-9-9-9-9-9-9-9---7-7-7-7-7-7-7-7---

E |---------------------------------------------------------------------------
B |---------------------------------------------------------------------------
G |---------------------------------------------------------------------------
D |---5-5-5-5-5-5-5-5---7-7-7-7-7-7-7-7---5-5-5-5-5-5-5-5---2-2-2-2-2-2-2-2---
A |---5-5-5-5-5-5-5-5---7-7-7-7-7-7-7-7---5-5-5-5-5-5-5-5---2-2-2-2-2-2-2-2---
D |---5-5-5-5-5-5-5-5---7-7-7-7-7-7-7-7---5-5-5-5-5-5-5-5---2-2-2-2-2-2-2-2--- X2

[3.28-3.52]
E |---------------------------------------------------------------------------------------
B |---------------------------------------------------------------------------------------
G |---------------------------------------------------------------------------------------
D |---5-5-5-5-5-5---7-7-7-7-7-7---9-9-9-9-9-9---4-4-4-4-4-4-4---5-5-5-5-5-5---2-2-2-2-2-2-
A |---5-5-5-5-5-5---7-7-7-7-7-7---9-9-9-9-9-9---4-4-4-4-4-4-4---5-5-5-5-5-5---2-2-2-2-2-2-
D |---5-5-5-5-5-5---7-7-7-7-7-7---9-9-9-9-9-9---4-4-4-4-4-4-4---5-5-5-5-5-5---2-2-2-2-2-2-

E |-----------------------------
B |-----------------------------
G |-----------------------------
D |---9-9-9-9-9-9---9-9-9-9-9-9-
A |---9-9-9-9-9-9---9-9-9-9-9-9-
D |---9-9-9-9-9-9---9-9-9-9-9-9-


E |--------------------------------------------------------------------------------------
B |---------------------------------------------------------------------------------------
G |---------------------------------------------------------------------------------------
D |---5-5-5-5-5-5---7-7-7-7-7-7---9-9-9-9-9-9---4-4-4-4-4-4-4---5-5-5-5-5-5---2-2-2-2-2-2-
A |---5-5-5-5-5-5---7-7-7-7-7-7---9-9-9-9-9-9---4-4-4-4-4-4-4---5-5-5-5-5-5---2-2-2-2-2-2-
D |---5-5-5-5-5-5---7-7-7-7-7-7---9-9-9-9-9-9---4-4-4-4-4-4-4---5-5-5-5-5-5---2-2-2-2-2-2-

E |-----------------------------
B |-----------------------------
G |-----------------------------
D |---9-9-9-9-9-9---7-7-7-7-7-7-
A |---9-9-9-9-9-9---7-7-7-7-7-7-
D |---9-9-9-9-9-9---7-7-7-7-7-7-




 
 
Being As An Ocean - Lexquisite Douleur :: indexed at Ultimate Guitar.
Lexquisite Douleur tabs @ 911Tabs

Quick tip, so you can enjoy Lexquisite Douleur even more:

If you don't really know how to deal with "Absus4" chord and his equally confusing brothers, just put the mouse cursor over them and you will be shown a helpful chord diagram.

Show us your talent, perform Lexquisite Douleur!

Here you can post a video or audio performance. Tell me more ...
Where can we find your performance? Tell me more ...
Your comment:
Please, log in to post your performance.