Artists by letter: A B C D E F G H I J K L M N O P Q R S T U V W X Y Z 0-9

 
Lexquisite Douleur
TUNING - DROP D
I spoke to Tyler on Twitter and he said himself that most of How We Both Wondrously 
Perish is in Drop D.
Credit to Davidmclaugh as he had the main part of the tab correct however it was in the 
wrong tuning.

 Lead
 [0:00]-[0:22]
e|----------------------------------------------------------------|
B|-------10--------------10--------------10--------8----8--8--8---|
G|----7-------7--------7------7-------7-------7-------7--7--7--7--|
D|--9--9-------9-----9--9------9----9--9--------9-----------------|
A|----------------------------------------------------------------|
E|----------------------------------------------------------------|

e|--------------------------------------------------------------|
B|-------7--------------9---------------9--------7h8p7----------|
G|----7------9-------9-------9-------9------9----------7-6h7----|
D|---9---9-----9---9--9--------9---9--9------9---------------7--|
A|--------------------------------------------------------------|
E|--------------------------------------------------------------|

x2

 Rhythm
 [0:00]-[0:22]
e|---------------------------------------------------|
B|---------------------------------------------------|
G|-----------2222-22--4444-44------------------------|
D|--5555-55--2222-22--4444-44--2222-22---------------|
A|--5555-55--0000-00--2222-22--2222-22---------------|
E|--5555-55--------------------2222-22---------------|

e|---------------------------------------------------|
B|---------------------------------------------------|
G|--------------------4444-44--4444-44---------------|
D|--5555-55--2222-22--4444-44--4444-44---------------|
A|--5555-55--2222-22--2222-22--2222-22---------------|
E|--5555-55--2222-22---------------------------------|

x2

 Lead
 [0:22]-[0:45]
e|-------------------------------------|
B|-------------------------------------|
G|--6-7------6-7------6-7------6-7-----|
D|------4~-------4~-------4~-------4~--|
A|-------------------------------------|
E|-------------------------------------|

x1

 Lead
 [0:45]-[1:07]
e|--------------------------------------|
B|--------------------------------------|
G|--------------------------------------|
D|----------4/5-7-7/9-9--12p11----------|
A|--2/4-5/7----------------------12-9---|
E|--------------------------------------|

x8

 Rhythm
 [0:45]-[1:07]
e|-------------------------------------------|
B|-------------------------------------------|
G|--4444-4444---------------------2222-2222--|
D|--4444-4444-2222-2222-5555-5555-2222-2222--|
A|--2222-2222-2222-2222-5555-5555-0000-0000--|
E|------------2222-2222-5555-5555------------|

x4


 Both guitars
 [1:07]-[1:41]
e|------------------------------------------------------------|
B|------------------------------------------------------------|
G|----------------------xx------------------------------------|
D|--------9~--------9~--xx--9-9-9-7-7-7------5~--------5~-----|
A|--0000--9~---0000-9~--xx--9-9-9-7-7-7-0000-5~----000-5~-----|
E|--0000--9~---0000-9~--xx--9-9-9-7-7-7-0000-5~----000-5~-----|
|  ....       ....                     ....       ...

x3

 Lead
 [1:56]-[2:18]                          [2:18]-[2:21]
e|--------------------------------------|---------------------------------|
B|--------------------------------------|---------------------------------|
G|--------------------------------------|--2/4-7p4-7p4-2/4-7p4-7p4-7p4-2--|
D|----------4/5-7-7/9-9--12p11----------|---------------------------------|
A|--2/4-5/7----------------------12-9---|---------------------------------|
E|--------------------------------------|---------------------------------|

x8                                      x1

 Rhythm
 [1:56]-[2:18]                               [2:18]-[2:21]
e|-------------------------------------------|-----------------------|
B|-------------------------------------------|-----------------------|
G|--4444-4444---------------------2222-2222--|--2222-2222------------|
D|--4444-4444-2222-2222-5555-5555-2222-2222--|--2222-2222-2222-2222--|
A|--2222-2222-2222-2222-5555-5555-0000-0000--|--0000-0000-2222-2222--|
E|------------2222-2222-5555-5555------------|------------2222-2222--|

x4                                          x1

 Lead
 [2:21]-[3:06]
e|----------------------------------------|
B|----------------------------------------|
G|----------------------------------------|
D|----4-------4------2/4----4-------4-----|
A|--2--5~---2--5---2----------5~------5~--|
E|------------------------5-------2-------|

x4

 Lead
 [3:06]-[3:29]
e|-------------------------------------------|
B|-------------------------------------------|
G|-------------------------------------------|
D|------4---------2---------4---------2------|
A|--2-2---5~--------5~--2-2---5~--------5~---|
E|------------5-5-----------------5-5--------|

e|------------------------------------------|
B|------------------------------------------|
G|------------------------------------------|
D|-------4---------2--------4---------2-----|
A|---------5~--------5~-------5~--------5~--|
E|--2-2--------5-5------2-2-------5-5-------|

x2

 Rhythm
 [3:06]-[3:29]
e|-------------------------------------------|
B|-------------------------------------------|
G|--4444-4444-4222-2222-4444-4444-4222-2222--|
D|--4444-4444-4222-2222-4444-4444-4222-2222--|
A|--2222-2222-2000-0000-2222-2222-2000-0000--|
E|-------------------------------------------|

e|-------------------------------------------|
B|-------------------------------------------|
G|------------2222-2222-----------2222-2222--|
D|--5555-5555-2222-2222-5555-5555-2222-2222--|
A|--5555-5555-0000-0000-5555-5555-0000-0000--|
E|--5555-5555-----------5555-5555------------|

x2

 Lead
 [3:29]-[3:55]
e|-------------------------------------------------------------------|
B|-------10--------------10--------------10--------8----8--8--8-----|
G|----7-------7--------7------7-------7-------7-------7--7--7--7----|
D|--9--9-------9-----9--9------9----9--9--------9-------------------|
A|------------------------------------------------------------------|
E|------------------------------------------------------------------|

e|--------------------------------------------------------------|
B|-------7--------------9---------------9--------7h8p7----------|
G|----7------9-------9-------9-------9------9----------7-6h7----|
D|---9---9-----9---9--9--------9---9--9------9---------------7--|
A|--------------------------------------------------------------|
E|--------------------------------------------------------------|

x2

 Rhythm
 [3:29]-[3:55]
e|---------------------------------------------------|
B|---------------------------------------------------|
G|-----------2222-22--4444-44--2222-22---------------|
D|--5555-55--2222-22--4444-44--2222-22---------------|
A|--5555-55--0000-00--2222-22--0000-00---------------|
E|--5555-55------------------------------------------|
|
e|---------------------------------------------------|
B|---------------------------------------------------|
G|--------------------4444-44--2222-22---------------|
D|--5555-55--2222-22--4444-44--2222-22---------------|
A|--5555-55--2222-22--2222-22--0000-00---------------|
E|--5555-55--2222-22---------------------------------|

x2
 
 
Being As An Ocean - Lexquisite Douleur :: indexed at Ultimate Guitar.
Lexquisite Douleur tabs @ 911Tabs

Quick tip, so you can enjoy Lexquisite Douleur even more:

You might want to transpose the song if it is too high or too low for you to sing. Just click the desired option while playing a song and all the chords will automatically be transponded into a new key.

Show us your talent, perform Lexquisite Douleur!

Here you can post a video or audio performance. Tell me more ...
Where can we find your performance? Tell me more ...
Your comment:
Please, log in to post your performance.