Artists by letter: A B C D E F G H I J K L M N O P Q R S T U V W X Y Z 0-9

 
Lexquisite Douler
Drop C Tuning


Guitar 1 
[0:00]-[0:22]
|----------------------------------------------------------------|
|-------12--------------12--------------12-------10---10-10-10---|
|----9-------9-------9-------9-------9-------9-------9--9--9--9--|
|--11-11------11---11-11------11---11-11------11-----------------|
|----------------------------------------------------------------|
|----------------------------------------------------------------|
|
|--------------------------------------------------------------|
|-------9--------------9---------------9--------9h10p9---------|
|----9------9-------9-------9-------9------9----------9-8h9----|
|--11-11-----11---11-11------11---11-11-----11--------------9--|
|--------------------------------------------------------------|
|--------------------------------------------------------------|
|
|x2

Guitar 2
[0:00]-[0:22]
|---------------------------------------------------|
|---------------------------------------------------|
|--2222-22--4444-44--6666-66--4444-44---------------|
|--2222-22--4444-44--6666-66--4444-44---------------|
|--0000-00--2222-22--4444-44--2222-22---------------|
|---------------------------------------------------|
|
|---------------------------------------------------|
|---------------------------------------------------|
|--2222-22-----------6666-66--4444-44---------------|
|--2222-22--4444-44--6666-66--4444-44---------------|
|--0000-00--4444-44--4444-44--2222-22---------------|
|-----------4444-44---------------------------------|
|
|x2

Guitar 1
[0:22]-[0:45]
|-------------------------------------|
|-------------------------------------|
|--8-9------8-9------8-9------8-9-----|
|------6~-------6~-------6~-------6~--|
|-------------------------------------|
|-------------------------------------|
|
|x1

Guitar 1
[0:45]-[1:07]
|--------------------------------------|
|--------------------------------------|
|--------------------------------------|
|----------6/7-9-9/11-11--14p13--------|
|--4/6-7/9----------------------14-11--|
|--------------------------------------|
|
|x8

Guitar 2
[0:45]-[1:07]
|-------------------------------------------|
|-------------------------------------------|
|--6666-6666-----------2222-2222-4444-4444--|
|--6666-6666-4444-4444-2222-2222-4444-4444--|
|--4444-4444-4444-4444-0000-0000-2222-2222--|
|------------4444-4444----------------------|
|
|x4


Guitar 1 & 2
[1:07]-[1:41]
|------------------------------------------------------------|
|------------------------------------------------------------|
|-------6~---------6~--xx--6-6-6-4-4-4------2~--------2~-----|
|-------6~---------6~--xx--6-6-6-4-4-4------2~--------2~-----|
|--0000-4~----0000-4~--xx--4-4-4-2-2-2-0000-0~----000-0~-----|
|--0000-------0000-----xx--------------0000-------000--------|
|  ....       ....                     ....       ...                        
|
|x3

Guitar 1
[1:56]-[2:18]                          [2:18]-[2:21]
|--------------------------------------|---------------------------------|
|--------------------------------------|---------------------------------|
|--------------------------------------|--4/6-9p6-9p6-4/6-9p6-9p6-9p6-4--|
|----------6/7-9-9/11-11--14p13--------|---------------------------------|
|--4/6-7/9----------------------14-11--|---------------------------------|
|--------------------------------------|---------------------------------|
|                                      |
|x8                                    |x1
 
Guitar 2
[1:56]-[2:18]                               [2:18]-[2:21]
|-------------------------------------------|-----------------------|
|-------------------------------------------|-----------------------|
|--6666-6666-----------2222-2222-4444-4444--|--4444-4444-4444-4444--|
|--6666-6666-4444-4444-2222-2222-4444-4444--|--4444-4444-4444-4444--|
|--4444-4444-4444-4444-0000-0000-2222-2222--|--2222-2222-4444-4444--|
|------------4444-4444----------------------|------------4444-4444--|
|                                           |
|x4                                         |x1

Guitar 1
[2:21]-[3:06] 
|----------------------------------------|
|----------------------------------------|
|----1-------1-------------1-------1-----|
|------2~------2----4/6------2~------2~--|
|--4-------4------4------0---------------|
|--------------------------------4-------|
|
|x4

Guitar 1
[3:06]-[3:29]
|-------------------------------------------|
|-------------------------------------------|
|------1-------------------1----------------|
|--------2~------4-2~--------2~------4-2~---|
|--4-4-------0-0-------4-4-------0-0--------|
|-------------------------------------------|
|
|------------------------------------------|
|------------------------------------------|
|-------1------------------1---------------|
|---------2~------4-2~-------2~------4-2~--|
|-------------0-0----------------0-0-------|
|--4-4-----------------4-4-----------------|
|
|x2

Guitar 2
[3:06]-[3:29]
|-------------------------------------------|
|-------------------------------------------|
|--6666-6666-6444-4444-6666-6666-6444-4444--|
|--6666-6666-6444-4444-6666-6666-6444-4444--|
|--4444-4444-4222-2222-4444-4444-4222-2222--|
|-------------------------------------------|
|
|-------------------------------------------|
|-------------------------------------------|
|--2222-2222-4444-4444-2222-2222-4444-4444--|
|--2222-2222-4444-4444-2222-2222-4444-4444--|
|--0000-0000-2222-2222-0000-0000-2222-2222--|
|-------------------------------------------|
|
|x2

Guitar 1 
[3:29]-[3:55]
|----------------------------------------------------------------|
|-------12--------------12--------------12-------10---10-10-10---|
|----9-------9-------9-------9-------9-------9-------9--9--9--9--|
|--11-11------11---11-11------11---11-11------11-----------------|
|----------------------------------------------------------------|
|----------------------------------------------------------------|
|
|-------------------------------------------------------------|
|-------9-------------9---------------9--------9h10p9---------|
|----9------9-------9------9-------9------9----------9-8h9----|
|--11-11-----11---11-11-----11---11-11-----11--------------9--|
|-------------------------------------------------------------|
|-------------------------------------------------------------|
|
|x2

Guitar 2
[3:29]-[3:55]
|---------------------------------------------------|
|---------------------------------------------------|
|--2222-22--4444-44--6666-66--4444-44---------------|
|--2222-22--4444-44--6666-66--4444-44---------------|
|--0000-00--2222-22--4444-44--2222-22---------------|
|---------------------------------------------------|
|
|---------------------------------------------------|
|---------------------------------------------------|
|--2222-22-----------6666-66--4444-44---------------|
|--2222-22--4444-44--6666-66--4444-44---------------|
|--0000-00--4444-44--4444-44--2222-22---------------|
|-----------4444-44---------------------------------|
|
|x2



 
 
Being As An Ocean - Lexquisite Douler :: indexed at Ultimate Guitar.
Lexquisite Douler tabs @ 911Tabs

Quick tip, so you can enjoy Lexquisite Douler even more:

YourChords.com Guitar Chords and Tabs Archive is currently indexing over 240'000 songs from 21'000+ different artists. And new chords just keep on coming in, so you will surely never run out of them.

Show us your talent, perform Lexquisite Douler!

Here you can post a video or audio performance. Tell me more ...
Where can we find your performance? Tell me more ...
Your comment:
Please, log in to post your performance.