Artists by letter: A B C D E F G H I J K L M N O P Q R S T U V W X Y Z 0-9

 
Three Perfect Days
Capo 1
Intro goes like this:
e---3-----3-----------3-----3---------------------------|
b--1----1------1---1-------1----1-----------------------|
g-0---2------2------------------------------------------|
d----------------3------3-----3-------------------------|
a-------------------------------------------------------|
E--------------------------------         repeat this---|  2x
Verse:
still the same tabs above
until the lyrics '' so deep inside''
Pre chorus: ( in the lyrics: day 3 comes you tell everyone blah blah...)
goes like this:
e---3-----3-----------3-----3-----------3----3------------3-----3----------3-----3------|
b--1----1------1---1-------1----1----1-----1-------1----1-----1-----1----1-----1------1-|
g-0---2------2---------------------2-----2------2-----0----0------0----2-----2------2---|
d----------------3------3-----3---------------------------------------------------------|
a---------------------------------------------------------------------------------------|
E---------------------------------------------------------------------------------------|

e--------3-------3---------3------3--------3-|
b------1-------1----1----1------1------1---1-|
g---------------------2------2-------2-----2-|
d--3---------3----3------------------------3-|
a--------------------------------------------|
E--------------------------------------------|
Chorus:
           C
I was the one for a minute, two for a second,
G
Three days later you told me to forget it
Am7                            G
Three perfect days, they were three perfect days
               C
Thought it was love, we were in it, then it was over
G                                          Am7
Now I?m looking for somebody?s shoulder to make me feel okay
              G
And how could I let her get away in just three days?
(repeat intro)
(repeat verse tabs)
(repeat pre chorus tabs)
(repeat chorus chords)
Bridge:
C               G
 I?d do it all again,
C                        G
 Even if I knew it would end
Am7                     C    G
  And I still remember when  yeah....
repeat chorus chords
done :)
 
 
Before You Exit - Three Perfect Days :: indexed at Ultimate Guitar.
Three Perfect Days tabs @ 911Tabs

Quick tip, so you can enjoy Three Perfect Days even more:

If you don't really know how to deal with "Absus4" chord and his equally confusing brothers, just put the mouse cursor over them and you will be shown a helpful chord diagram.

Show us your talent, perform Three Perfect Days!

Here you can post a video or audio performance. Tell me more ...
Where can we find your performance? Tell me more ...
Your comment:
Please, log in to post your performance.