Artists by letter: A B C D E F G H I J K L M N O P Q R S T U V W X Y Z 0-9

 
Find
Tabbed by: Joshua Garcia ([email protected])

Tabs for the song: Find by Before Their Eyes
Please rate and let me know if you have any corrections. Thank you.

Tuning: Drop C (C G C F A D)

Intro
Guitar 1:
D||--------------------------------------------------------------------------------------|
A||--------------------------------------------------------------------------------------|
F||--7-7-7-10-10-10-12-12-12-14-14-14-14-14-14-14-7-7-7-10-10-10-12-12-12-9-9-9-9-9-9-9--|
C||--x-x-x-x--x--x--x--x--x--x--x--x--x--x--x--x--x-x-x-x--x--x--x--x--x--x-x-x-x-x-x-x--|
G||--5-5-5-8--8--8--10-10-10-12-12-12-12-12-12-12-5-5-5-8--8--8--10-10-10-7-7-7-7-7-7-7--|
C||--------------------------------------------------------------------------------------|

D||-----------------------------------------------------------------------------------|
A||-----------------------------------------------------------------------------------|
F||--7-7-7-10-10-10-12-12-12-14-14-14-14-14-14-14-7-7-7-10-10-10-8-8-8-8-8-8-8-8-8-8--|
C||--x-x-x-x--x--x--x--x--x--x--x--x--x--x--x--x--x-x-x-x--x--x--x-x-x-x-x-x-x-x-x-x--|
G||--5-5-5-8--8--8--10-10-10-12-12-12-12-12-12-12-5-5-5-8--8--8--6-6-6-6-6-6-6-6-6-6--|
C||-----------------------------------------------------------------------------------|

Guitar 2:
D||-------------------------------------------------------------------|
A||-------------------------------------------------------------------|
F||-------------------------------------------------------------------|
C||-------------------------------------------------------------------|
G||-------------------------------------------------------------------|
C||--0-0-0-3-3-3-5-5-5-7-7-7-7-7-7-7-0-0-0-3-3-3-5-5-5-2-2-2-2-2-2-2--|

D||-------------------------------------------------------------------|
A||-------------------------------------------------------------------|
F||-------------------------------------------------------------------|
C||-------------------------------------------------------------------|
G||-------------------------------------------------------------------|
C||--0-0-0-3-3-3-5-5-5-7-7-7-7-7-7-7-0-0-0-3-3-3-1-1-1-1-1-1-1-1-1-1--|



Verse
Guitar 1:
D||------|
A||------|
F||--7~--|
C||--x---|
G||--5~--|
C||------|

Guitar 2:
D||------|
A||------|
F||------|
C||--0~--|
G||--0~--|
C||--0~--|



Pre-Chorus
Guitar 1 (Left):
D||--------------------------------------------------|
A||------------------------8~------------8~----------|
F||----------5~-----------------5~------------5~-----|
C||-------7~-----------------------7~------------7~--|
G||--5~----------------------------------------------|
C||--------------------------------------------------|

D||--------------------------------------------------|
A||------------------------8~------------8~----------|
F||----------5~-----------------5~------------5~-----|
C||-------7~-----------------------7~------------7~--|
G||--5~----------------------------------------------|
C||--------------------------------------------------|

Guitar 2 (Right):
D||----------0~----0~--------------------------------|
A||-------------6~-----------------------------------|
F||--------------------------------------------------|
C||-------7~-----------------------------------------|
G||--------------------------------------------------|
C||--------------------------------------------------|

D||----------0~----0~--------------------0~----------|
A||-------------6~---------6~------------------------|
F||--------------------------------------------------|
C||-------7~-----------------------------------------|
G||--------------------------------------------------|
C||--------------------------------------------------|



Chorus
Guitar 1:
D||---------------------------------------------------------------------------------|
A||--10------------13---------------------------------------------------------------|
F||---------10------------10-----12---12-------12---12-----10---10-12---12----------|
C||-----0-0----0-0----0-0----0-0----0----0-0-0----0----0-0----0-------0----0-10-12--|
G||---------------------------------------------------------------------------------|
C||---------------------------------------------------------------------------------|
                                           . .    .    . .    .       .    .

D||------------------------------------------------------------------------------------------|
A||--10------------13--------------------------------10-10-10-11-11-11-----------------------|
F||---------10------------10-----12-12-12---------------------------------------10-10--------|
C||-----0-0----0-0----0-0----0-0----------0-12-12-12-------------------13-13-13-------12-12--|
G||------------------------------------------------------------------------------------------|
C||------------------------------------------------------------------------------------------|

Guitar 2:
D||-------------------------------------------------------------------|
A||-------------------------------------------------------------------|
F||-------------------------------------------------------------------|
C||--0-0-0-0-0-0-0-0-3-3-3-3-3-3-3-3-8-8-8-8-8-8-8-8-8-8-8-8-8-8-8-8--|
G||--0-0-0-0-0-0-0-0-3-3-3-3-3-3-3-3-8-8-8-8-8-8-8-8-8-8-8-8-8-8-8-8--|
C||--0-0-0-0-0-0-0-0-3-3-3-3-3-3-3-3-8-8-8-8-8-8-8-8-8-8-8-8-8-8-8-8--|

D||-------------------------------------------------------------------|
A||-------------------------------------------------------------------|
F||-------------------------------------------------------------------|
C||--0-0-0-0-0-0-0-0-3-3-3-3-3-3-3-3-1-1-1-1-1-1-1-1-1-1-1-1-1-1-1-1--|
G||--0-0-0-0-0-0-0-0-3-3-3-3-3-3-3-3-1-1-1-1-1-1-1-1-1-1-1-1-1-1-1-1--|
C||--0-0-0-0-0-0-0-0-3-3-3-3-3-3-3-3-1-1-1-1-1-1-1-1-1-1-1-1-1-1-1-1--|



Pre-Verse
Guitar 1:
D||--------------------------------------------------------------------------------------|
A||--------------------------------------------------------------------------------------|
F||--7-7-7-10-10-10-12-12-12-14-14-14-14-14-14-14-7-7-7-10-10-10-12-12-12-9-9-9-9-9-9-9--|
C||--x-x-x-x--x--x--x--x--x--x--x--x--x--x--x--x--x-x-x-x--x--x--x--x--x--x-x-x-x-x-x-x--|
G||--5-5-5-8--8--8--10-10-10-12-12-12-12-12-12-12-5-5-5-8--8--8--10-10-10-7-7-7-7-7-7-7--|
C||--------------------------------------------------------------------------------------|

D||-----------------------------------------------------------------------------------|
A||-----------------------------------------------------------------------------------|
F||--7-7-7-10-10-10-12-12-12-14-14-14-14-14-14-14-7-7-7-10-10-10-8-8-8-8-8-8-8-8-8-8--|
C||--x-x-x-x--x--x--x--x--x--x--x--x--x--x--x--x--x-x-x-x--x--x--x-x-x-x-x-x-x-x-x-x--|
G||--5-5-5-8--8--8--10-10-10-12-12-12-12-12-12-12-5-5-5-8--8--8--6-6-6-6-6-6-6-6-6-6--|
C||-----------------------------------------------------------------------------------|

Guitar 2:
D||-------------------------------------------------------------------|
A||-------------------------------------------------------------------|
F||-------------------------------------------------------------------|
C||-------------------------------------------------------------------|
G||-------------------------------------------------------------------|
C||--0-0-0-3-3-3-5-5-5-7-7-7-7-7-7-7-0-0-0-3-3-3-5-5-5-2-2-2-2-2-2-2--|

D||-------------------------------------------------------------------|
A||-------------------------------------------------------------------|
F||-------------------------------------------------------------------|
C||-------------------------------------------------------------------|
G||-------------------------------------------------------------------|
C||--0-0-0-3-3-3-5-5-5-7-7-7-7-7-7-7-0-0-0-3-3-3-1-1-1-1-1-1-1-1-1-1--|



Verse
Guitar 1:
D||------|
A||------|
F||--7~--|
C||--x---|
G||--5~--|
C||------|

Guitar 2:
D||------|
A||------|
F||------|
C||--0~--|
G||--0~--|
C||--0~--|



Pre-Chorus
Guitar 1 (Left):
D||--------------------------------------------------|
A||------------------------8~------------8~----------|
F||----------5~-----------------5~------------5~-----|
C||-------7~-----------------------7~------------7~--|
G||--5~----------------------------------------------|
C||--------------------------------------------------|

D||--------------------------------------------------|
A||------------------------8~------------8~----------|
F||----------5~-----------------5~------------5~-----|
C||-------7~-----------------------7~------------7~--|
G||--5~----------------------------------------------|
C||--------------------------------------------------|

D||-------0~-------|
A||------------6~--|
F||----------------|
C||--7~------------|
G||----------------|
C||----------------|

Guitar 2 (Right):
D||-------------------------------------------------------------------|
A||-------------------------------------------------------------------|
F||-------------------------------------------------------------------|
C||-------------------------------------------------------------------|
G||--5~--5-5-5-5-5-5-5-5-5-5-5-5-5-5-8~--8-8-8-8-8-8-7~--7-7-7-7-7-7--|
C||-------------------------------------------------------------------|
         . . . . . . . . . . . . . .     . . . . . .     . . . . . .

D||---------------------------------------------------------------------|
A||---------------------------------------------------------------------|
F||---------------------------------------------------------------------|
C||---------------------------------------------------------------------|
G||--5~--5-5-5-5-5-5-5-5-5-5-5-5-5-5-8~--8-8-8-8-8-8-3~--3-3-3-3-3-3-3--|
C||---------------------------------------------------------------------|
         . . . . . . . . . . . . . .     . . . . . .     . . . . . . .

D||------|
A||------|
F||------|
C||------|
G||--5~--|
C||------|



Chorus
Guitar 1:
D||---------------------------------------------------------------------------------|
A||--10------------13---------------------------------------------------------------|
F||---------10------------10-----12---12-------12---12-----10---10-12---12----------|
C||-----0-0----0-0----0-0----0-0----0----0-0-0----0----0-0----0-------0----0-10-12--|
G||---------------------------------------------------------------------------------|
C||---------------------------------------------------------------------------------|
                                           . .    .    . .    .       .    .

D||------------------------------------------------------------------------------------------|
A||--10------------13--------------------------------10-10-10-11-11-11-----------------------|
F||---------10------------10-----12-12-12---------------------------------------10-10--------|
C||-----0-0----0-0----0-0----0-0----------0-12-12-12-------------------13-13-13-------12-12--| x2
G||------------------------------------------------------------------------------------------|
C||------------------------------------------------------------------------------------------|

Guitar 2:
D||-------------------------------------------------------------------|
A||-------------------------------------------------------------------|
F||-------------------------------------------------------------------|
C||--0-0-0-0-0-0-0-0-3-3-3-3-3-3-3-3-8-8-8-8-8-8-8-8-8-8-8-8-8-8-8-8--|
G||--0-0-0-0-0-0-0-0-3-3-3-3-3-3-3-3-8-8-8-8-8-8-8-8-8-8-8-8-8-8-8-8--|
C||--0-0-0-0-0-0-0-0-3-3-3-3-3-3-3-3-8-8-8-8-8-8-8-8-8-8-8-8-8-8-8-8--|

D||-------------------------------------------------------------------|
A||-------------------------------------------------------------------|
F||-------------------------------------------------------------------|
C||--0-0-0-0-0-0-0-0-3-3-3-3-3-3-3-3-1-1-1-1-1-1-1-1-1-1-1-1-1-1-1-1--| x2
G||--0-0-0-0-0-0-0-0-3-3-3-3-3-3-3-3-1-1-1-1-1-1-1-1-1-1-1-1-1-1-1-1--|
C||--0-0-0-0-0-0-0-0-3-3-3-3-3-3-3-3-1-1-1-1-1-1-1-1-1-1-1-1-1-1-1-1--|



Pre-Verse
Guitar 1:
D||--------------------------------------------------------------------------------------|
A||--------------------------------------------------------------------------------------|
F||--7-7-7-10-10-10-12-12-12-14-14-14-14-14-14-14-7-7-7-10-10-10-12-12-12-9-9-9-9-9-9-9--|
C||--x-x-x-x--x--x--x--x--x--x--x--x--x--x--x--x--x-x-x-x--x--x--x--x--x--x-x-x-x-x-x-x--|
G||--5-5-5-8--8--8--10-10-10-12-12-12-12-12-12-12-5-5-5-8--8--8--10-10-10-7-7-7-7-7-7-7--|
C||--------------------------------------------------------------------------------------|

D||-----------------------------------------------------------------------------------|
A||-----------------------------------------------------------------------------------|
F||--7-7-7-10-10-10-12-12-12-14-14-14-14-14-14-14-7-7-7-10-10-10-8-8-8-8-8-8-8-8-8-8--|
C||--x-x-x-x--x--x--x--x--x--x--x--x--x--x--x--x--x-x-x-x--x--x--x-x-x-x-x-x-x-x-x-x--|
G||--5-5-5-8--8--8--10-10-10-12-12-12-12-12-12-12-5-5-5-8--8--8--6-6-6-6-6-6-6-6-6-6--|
C||-----------------------------------------------------------------------------------|

Guitar 2:
D||-------------------------------------------------------------------|
A||-------------------------------------------------------------------|
F||-------------------------------------------------------------------|
C||-------------------------------------------------------------------|
G||-------------------------------------------------------------------|
C||--0-0-0-3-3-3-5-5-5-7-7-7-7-7-7-7-0-0-0-3-3-3-5-5-5-2-2-2-2-2-2-2--|

D||-------------------------------------------------------------------|
A||-------------------------------------------------------------------|
F||-------------------------------------------------------------------|
C||-------------------------------------------------------------------|
G||-------------------------------------------------------------------|
C||--0-0-0-3-3-3-5-5-5-7-7-7-7-7-7-7-0-0-0-3-3-3-1-1-1-1-1-1-1-1-1-1--|



Breakdown
Guitar 1:
D||-------------------------------------------------|
A||-------------------------------------------------|
F||-------------------------------------------------|
C||--0---0---0-0---0-------000---0---000---000---0--|
G||--0---0---0-0---0-------000---0---000---000---0--|
C||--0---0---0-0---0-------000---0---000---000---0--|
     .   .   . .   .       ...   .   ...   ...   .



Guitar 1/2:
D||-------------------------------------------------|
A||-------------------------------------------------|
F||-------------------------------------------------|
C||--0---0---0-0---0-------000---0---000---000---0--| x2
G||--0---0---0-0---0-------000---0---000---000---0--|
C||--0---0---0-0---0-------000---0---000---000---0--|
     .   .   . .   .       ...   .   ...   ...   .

D||--------------------------------------------------|
A||--------------------------------------------------|
F||--------------------------------------------------|
C||--1~--1~--1-1~--1~------111~--1~--111~--111~--1~--|
G||--0~--0~--0-0~--0~------000~--0~--000~--000~--0~--|
C||--1~--1~--1-1~--1~------111~--1~--111~--111~--1~--|
     .   .   . .   .       ...   .   ...   ...   .



Guitar 1:
D||-------------------------------------------------|
A||-------------------------------------------------|
F||-------------------------------------------------|
C||--0---0---0-0---0-------000---0---000---000---0--|
G||--0---0---0-0---0-------000---0---000---000---0--|
C||--0---0---0-0---0-------000---0---000---000---0--|
     .   .   . .   .       ...   .   ...   ...   .

Guitar 2:
D||-------------------------------------------------------------------|
A||-------------------------------------------------------------------|
F||-------------------------------------------------------------------|
C||--0-0-0-0-0-0-0-0-0-0-0-0-0-0-0-0-0-0-0-0-0-0-0-0-0-0-0-0-0-0-0-0--|
G||--0-0-0-0-0-0-0-0-0-0-0-0-0-0-0-0-0-0-0-0-0-0-0-0-0-0-0-0-0-0-0-0--|
C||--0-0-0-0-0-0-0-0-0-0-0-0-0-0-0-0-0-0-0-0-0-0-0-0-0-0-0-0-0-0-0-0--|
     . . . . . . . . . . . . . . . . . . . . . . . . . . . . . . . .



Bridge
Guitar 1/2:
D||----------------|
A||----------------|
F||----------------|
C||--0~--------3~--|
G||--0~--------3~--|
C||--0~--------3~--|



Chorus
Guitar 1:
D||-------------------------------------------|
A||-------------------------------------------|
F||------12---12-----10---10-12---12----------|
C||--0-0----0----0-0----0-------0----0-10-12--|
G||-------------------------------------------|
C||-------------------------------------------|
     . .    .    . .    .       .    .

D||------------------------------------------------------------------------------------------|
A||--10------------13--------------------------------10-10-10-11-11-11-----------------------|
F||---------10------------10-----12-12-12---------------------------------------10-10--------|
C||-----0-0----0-0----0-0----0-0----------0-12-12-12-------------------13-13-13-------12-12--|
G||------------------------------------------------------------------------------------------|
C||------------------------------------------------------------------------------------------|

Guitar 2:
D||-----------------------------------|
A||-----------------------------------|
F||-----------------------------------|
C||--8-8-8-8-8-8-8-8-8-8-8-8-8-8-8-8--|
G||--8-8-8-8-8-8-8-8-8-8-8-8-8-8-8-8--|
C||--8-8-8-8-8-8-8-8-8-8-8-8-8-8-8-8--|

D||-------------------------------------------------------------------|
A||-------------------------------------------------------------------|
F||-------------------------------------------------------------------|
C||--0-0-0-0-0-0-0-0-3-3-3-3-3-3-3-3-1-1-1-1-1-1-1-1-1-1-1-1-1-1-1-1--|
G||--0-0-0-0-0-0-0-0-3-3-3-3-3-3-3-3-1-1-1-1-1-1-1-1-1-1-1-1-1-1-1-1--|
C||--0-0-0-0-0-0-0-0-3-3-3-3-3-3-3-3-1-1-1-1-1-1-1-1-1-1-1-1-1-1-1-1--|



Guitar 1:
D||---------------------------------------------------------------------------------|
A||--10------------13---------------------------------------------------------------|
F||---------10------------10-----12---12-------12---12-----10---10-12---12----------|
C||-----0-0----0-0----0-0----0-0----0----0-0-0----0----0-0----0-------0----0-10-12--|
G||---------------------------------------------------------------------------------|
C||---------------------------------------------------------------------------------|
                                           . .    .    . .    .       .    .

D||------------------------------------------------------------------------------------------|
A||--10------------13--------------------------------10-10-10-11-11-11-----------------------|
F||---------10------------10-----12-12-12---------------------------------------10-10--------|
C||-----0-0----0-0----0-0----0-0----------0-12-12-12-------------------13-13-13-------12-12--|
G||------------------------------------------------------------------------------------------|
C||------------------------------------------------------------------------------------------|

Guitar 2:
D||-------------------------------------------------------------------|
A||-------------------------------------------------------------------|
F||-------------------------------------------------------------------|
C||--0-0-0-0-0-0-0-0-3-3-3-3-3-3-3-3-8-8-8-8-8-8-8-8-8-8-8-8-8-8-8-8--|
G||--0-0-0-0-0-0-0-0-3-3-3-3-3-3-3-3-8-8-8-8-8-8-8-8-8-8-8-8-8-8-8-8--|
C||--0-0-0-0-0-0-0-0-3-3-3-3-3-3-3-3-8-8-8-8-8-8-8-8-8-8-8-8-8-8-8-8--|

D||-------------------------------------------------------------------|
A||-------------------------------------------------------------------|
F||-------------------------------------------------------------------|
C||--0-0-0-0-0-0-0-0-3-3-3-3-3-3-3-3-1-1-1-1-1-1-1-1-1-1-1-1-1-1-1-1--|
G||--0-0-0-0-0-0-0-0-3-3-3-3-3-3-3-3-1-1-1-1-1-1-1-1-1-1-1-1-1-1-1-1--|
C||--0-0-0-0-0-0-0-0-3-3-3-3-3-3-3-3-1-1-1-1-1-1-1-1-1-1-1-1-1-1-1-1--|



Outro
Guitar 1:
D||--------------------------------------------------------------------------------------|
A||--------------------------------------------------------------------------------------|
F||--7-7-7-10-10-10-12-12-12-14-14-14-14-14-14-14-7-7-7-10-10-10-12-12-12-9-9-9-9-9-9-9--|
C||--x-x-x-x--x--x--x--x--x--x--x--x--x--x--x--x--x-x-x-x--x--x--x--x--x--x-x-x-x-x-x-x--|
G||--5-5-5-8--8--8--10-10-10-12-12-12-12-12-12-12-5-5-5-8--8--8--10-10-10-7-7-7-7-7-7-7--|
C||--------------------------------------------------------------------------------------|

D||-----------------------------------------------------------------------------------|
A||-----------------------------------------------------------------------------------|
F||--7-7-7-10-10-10-12-12-12-14-14-14-14-14-14-14-7-7-7-10-10-10-8-8-8-8-8-8-8-8-8-8--|
C||--x-x-x-x--x--x--x--x--x--x--x--x--x--x--x--x--x-x-x-x--x--x--x-x-x-x-x-x-x-x-x-x--|
G||--5-5-5-8--8--8--10-10-10-12-12-12-12-12-12-12-5-5-5-8--8--8--6-6-6-6-6-6-6-6-6-6--|
C||-----------------------------------------------------------------------------------|

Guitar 2:
D||-------------------------------------------------------------------|
A||-------------------------------------------------------------------|
F||-------------------------------------------------------------------|
C||-------------------------------------------------------------------|
G||-------------------------------------------------------------------|
C||--0-0-0-3-3-3-5-5-5-7-7-7-7-7-7-7-0-0-0-3-3-3-5-5-5-2-2-2-2-2-2-2--|

D||-------------------------------------------------------------------|
A||-------------------------------------------------------------------|
F||-------------------------------------------------------------------|
C||-------------------------------------------------------------------|
G||-------------------------------------------------------------------|
C||--0-0-0-3-3-3-5-5-5-7-7-7-7-7-7-7-0-0-0-3-3-3-1-1-1-1-1-1-1-1-1-1--|

Guitar 1/2:
D||------|
A||------|
F||------|
C||--0~--|
G||--0~--|
C||--0~--|



Tablature Legend
----------------
 h   hammer-on
 p   pull-off
 b   bend
 pb  pre-bend
 r   release bend
 ~   hold / vibrato
 .   palm mute
 /   slide up
 \   slide down
 *   pinch harmonic
 '   natural harmonic
 x   mute note
 T   tap
 
 
Before Their Eyes - Find :: indexed at Ultimate Guitar.
Find tabs @ 911Tabs

About the artist behind Find:

Before Their Eyes is a Christian post-hardcore band from Findlay, Ohio, USA. They are currently signed to Rise Records. All members of the band are Christian[1], and their religion has influenced their music and lyrics. The name Before Their Eyes is taken from Romans 3:18 of the New Testament ("There is no fear of God before their eyes").[2] Before Their Eyes are currently touring across the USA in the Artery Foundation "Across The Nation" tour with A Skylit Drive and Four Letter Lie. They will also be playing alongside other bands including Memphis May Fire, Blinded Black, Dance Gavin Dance, Oh, Sleeper and The Hottness. In a blog posted on their mySpace on February 25, 2008, the band revealed that they are to start writing their next album on April 22. The band has postponed recording their new album entitled The Dawn of My Death to head out on the "Scream The Prayer Tour" this year with Here I Come Falling, AGRACEFUL, AKissForJersey, Blessed by a Broken Heart and Impending Doom.[3]

Indexed at Wikipedia.

Show us your talent, perform Find!

Here you can post a video or audio performance. Tell me more ...
Where can we find your performance? Tell me more ...
Your comment:
Please, log in to post your performance.