Artists by letter: A B C D E F G H I J K L M N O P Q R S T U V W X Y Z 0-9

 
Night Fever
NIGHT FEVER

As recorded by Bee Gees
(From the 1977 Album SATURDAY NIGHT FEVER)

Words and Music by Barry Gibb, Maurice Gibb & Robin Gibb

Transcribed by Slowhand


Gtr I (E A D G B E) - 'Strings'
Gtr II (E A D G B E) - 'Barry Gibb - Clean Guitar Guitar'
Gtr III (E A D G B E) - 'Alan Kendall - Overdriven Electric Guitar'


 Intro
  Q=112
  N.C.                       C#m
 4/4
  Gtr I (Strings arr. for Gtr.)
  W                       H.                Q
|----------------------|-----------------------|
|----------------------|-12----------------14--|
|----------------------|-----------------------|
|----------------------|-----------------------|
|----------------------|-----------------------|
|----------------------|-----------------------|
|
| Gtr II
| H    S S S S S S S S    E  E +S  S E e E  Q
|----------------------|-----4-(4)-4-4-4-------|
|------x-x-x-x-x-x-x-x-|-----5-(5)-5-5-5-------|
|------x-x-x-x-x-x-x-x-|-----6-(6)-6-6-6-------|
|------x-x-x-x-x-x-x-x-|-----6-(6)-6-6-6-------|
|----------------------|-----------------------|
|----------------------|-----------------------|


      F#m                    Emaj7
   H.                Q     W
|-12----------------14--|-----------------------|
|-----------------------|-12--------------------|
|-----------------------|-----------------------|
|-----------------------|-----------------------|
|-----------------------|-----------------------|
|-----------------------|-----------------------|
|
|  E  E +S  S E e E  Q     E E +S  S E e E Q
|-----2-(2)-2-2-2-------|----4-(4)-4-4-4--------|
|-----2-(2)-2-2-2-------|----4-(4)-4-4-4--------|
|-----2-(2)-2-2-2-------|----4-(4)-4-4-4--------|
|-----4-(4)-4-4-4-------|----2-(2)-2-2-2--------|
|-----------------------|-----------------------|
|-----------------------|-----------------------|


    F#m                            C#m
  Q    E     E  +E   E    Q     H.                Q
|-----------12-(12)------14--|-----------------------|
|-----14------------14-------|-12----------------14--|
|----------------------------|-----------------------|
|----------------------------|-----------------------|
|----------------------------|-----------------------|
|----------------------------|-----------------------|
|
| E E +S  S  E   e   S S  Q     E  E +S  S E e E  Q
|---2-(2)-2--2---2---2-2-----|-----4-(4)-4-4-4-------|
|---2-(2)-2--2---2---2-2-----|-----5-(5)-5-5-5-------|
|---2-(2)-2--2---2---2-2-----|-----6-(6)-6-6-6-------|
|---4-(4)-4--4---4---4-4-----|-----6-(6)-6-6-6-------|
|----------------------------|-----------------------|
|----------------------------|-----------------------|


      F#m                    Emaj7
   H.                Q     W
|-12----------------14--|---------------------|
|-----------------------|-12------------------|
|-----------------------|---------------------|
|-----------------------|---------------------|
|-----------------------|---------------------|
|-----------------------|---------------------|
|
|  E  E +S  S E e E  Q     E E +S  S E e E Q
|-----2-(2)-2-2-2-------|----4-(4)-4-4-4------|
|-----2-(2)-2-2-2-------|----4-(4)-4-4-4------|
|-----2-(2)-2-2-2-------|----4-(4)-4-4-4------|
|-----4-(4)-4-4-4-------|----2-(2)-2-2-2------|
|-----------------------|---------------------|
|-----------------------|---------------------|


                                    1st & 2nd Verses
                                  $
    F#m                              B          A          E
  E  E  E     E  +E   E    +E   E    W          W          W
|---14-16----14-(14)-12---(12)----||----------|----------|------|
|------------------------------14-||----------|----------|------|
|---------------------------------||----------|----------|------|
|---------------------------------||----------|----------|------|
|---------------------------------||----------|----------|------|
|---------------------------------||----------|----------|------|
|
|                                    Gtr III
| E  E +S  S  E   e   S S   Q        W          W          W
|----2-(2)-2--2---2---2-2---------||----------|----------|-0----|
|----2-(2)-2--2---2---2-2---------||-4--------|-2--------|-0----|
|----2-(2)-2--2---2---2-2---------||-4--------|-2--------|-1----|
|----4-(4)-4--4---4---4-4---------||-4--------|-2--------|-2----|
|---------------------------------||-2--------|-0--------|-2----|
|---------------------------------||----------|----------|-0----|


  B                     C#m        E    A
  Gtr III
  W          W          W          H    H
|----------|----------|-4--------|-0---------|
|-4--------|-4--------|-5--------|-0----2----|
|-4--------|-4--------|-6--------|-1----2----|
|-4--------|-4--------|-6--------|-2----2----|
|-2--------|-2--------|-4--------|-2----0----|
|----------|----------|----------|-0---------|


             Pre-Chorus
  B              G#m             A
           Gtr II
  W           Q  E. S q  q    Q  E. S q  q    Q  E. S q  q
|----------||----4--4-4--4--|----5--5-5--5--|----4--4-4--4--|
|-4--------||----4--4-4--4--|----5--5-5--5--|----4--4-4--4--|
|-4--------||----4--4-4--4--|----6--6-6--6--|----4--4-4--4--|
|-4--------||----6--6-6--6--|----7--7-7--7--|----6--6-6--6--|
|-2--------||---------------|---------------|---------------|
|----------||---------------|---------------|---------------|


                                                     Chorus
    D#m                   G#m          C#m    G#m         C#m
  Gtr I
  W                    W               W               H.                Q
|--------------------|---------------|-------------||-----------------------|
|--------------------|---------------|-------------||-12----------------14--|
|--------------------|---------------|-------------||-----------------------|
|--------------------|---------------|-------------||-----------------------|
|--------------------|---------------|-------------||-----------------------|
|--------------------|---------------|-------------||-----------------------|
|
| Gtr II
| E E S S E E S S Q    Q  E. S q  q    Q  e E H        E  E +S  S E e E  Q
|---6-6-6---6---6----|----4--4-4--4--|-4--4---4----||-----4-(4)-4-4-4-------|
|---7-7-7---7---7----|----4--4-4--4--|-5--5---4----||-----5-(5)-5-5-5-------|
|---8-8-8---8---8----|----4--4-4--4--|-6--6---4----||-----6-(6)-6-6-6-------|
|---8-8-8---8---8----|----6--6-6--6--|-6--6---6----||-----6-(6)-6-6-6-------|
|--------------------|---------------|-------------||-----------------------|
|--------------------|---------------|-------------||-----------------------|


      F#m                    G#m
   H.                Q     W
|-12----------------14--|---------------------|
|-----------------------|-12------------------|
|-----------------------|---------------------|
|-----------------------|---------------------|
|-----------------------|---------------------|
|-----------------------|---------------------|
|
|  E  E +S  S E e E  Q     E E +S  S E e E Q
|-----2-(2)-2-2-2-------|----4-(4)-4-4-4------|
|-----2-(2)-2-2-2-------|----4-(4)-4-4-4------|
|-----2-(2)-2-2-2-------|----4-(4)-4-4-4------|
|-----4-(4)-4-4-4-------|----2-(2)-2-2-2------|
|-----------------------|---------------------|
|-----------------------|---------------------|


     F#m                                  C#m
   |------3------|    |-----3-----|
   Q    Q        Q    Q    Q      Q    H.                Q
|-------------------------16-----19-|-21----------------------|
|---------------17---19-------------|-------------------------|
|-16---18---------------------------|-------------------18----|
|-----------------------------------|-------------------------|
|-----------------------------------|-------------------------|
|-----------------------------------|-------------------------|
|
|  E E    +S  S    E  e S    S Q       E  E +S  S E e E  Q
|----2----(2)-2----2--2-2----2------|-----4-(4)-4-4-4---------|
|----2----(2)-2----2--2-2----2------|-----5-(5)-5-5-5---------|
|----2----(2)-2----2--2-2----2------|-----6-(6)-6-6-6---------|
|----4----(4)-4----4--4-4----4------|-----6-(6)-6-6-6---------|
|-----------------------------------|-------------------------|
|-----------------------------------|-------------------------|


      F#m                    Emaj7
   H.                Q     W
|-------------------14--|---------------------|
|-17--------------------|---------------------|
|-----------------------|-16------------------|
|-----------------------|---------------------|
|-----------------------|---------------------|
|-----------------------|---------------------|
|
|  E  E +S  S E e E  Q     E E +S  S E e E Q
|-----2-(2)-2-2-2-------|----4-(4)-4-4-4------|
|-----2-(2)-2-2-2-------|----4-(4)-4-4-4------|
|-----2-(2)-2-2-2-------|----4-(4)-4-4-4------|
|-----4-(4)-4-4-4-------|----2-(2)-2-2-2------|
|-----------------------|---------------------|
|-----------------------|---------------------|


                                    Bridge
    F#m                              F#
  E  E  E     E  +E   E    +E   E     W
|---14-16----14-(14)--------------||-------|
|--------------------17---(17)-16-||-14----|
|---------------------------------||-------|
|---------------------------------||-------|
|---------------------------------||-------|
|---------------------------------||-------|
|
| E  E +S  S  E   e   S S   Q         W
|----2-(2)-2--2---2---2-2---------||--2----|
|----2-(2)-2--2---2---2-2---------||--2----|
|----2-(2)-2--2---2---2-2---------||--3----|
|----4-(4)-4--4---4---4-4---------||--4----|
|---------------------------------||--4----|
|---------------------------------||--2----|


  C#m           F#            C#m           F#      C#m
   +W            +W            +W            +W
|-------------|-------------|-------------|--------------|
|-(14)--------|-(14)--------|-(14)--------|-(14)---------|
|-------------|-------------|-------------|--------------|
|-------------|-------------|-------------|--------------|
|-------------|-------------|-------------|--------------|
|-------------|-------------|-------------|--------------|
|
|   W             W             W             H     H
|---4---------|---2---------|---4---------|---2-----4----|
|---5---------|---2---------|---5---------|---2-----5----|
|---6---------|---3---------|---6---------|---3-----6----|
|---6---------|---4---------|---6---------|---4-----6----|
|---4---------|---4---------|---4---------|---4-----4----|
|-------------|---2---------|-------------|---2----------|


                                                   Chorus
     To Coda
  F#      C#m    F#               C#                    C#m
   +W             +W               +W                H.                Q
|--------------|----------------|----------------||------------------------|
|-(14)---------|-(14)-----------|-(14)-----------||-12----------------14---|
|--------------|----------------|----------------||------------------------|
|--------------|----------------|----------------||------------------------|
|--------------|----------------|----------------||------------------------|
|--------------|----------------|----------------||------------------------|
|
|   H     H        Q   Q  Q  Q      Q   Q  Q  Q      E  E +S  S E e E  Q
|---2-----4----|---2---2--2--2--|----------------||-----4-(4)-4-4-4--------|
|---2-----5----|---2---2--2--2--|---6---6--6--6--||-----5-(5)-5-5-5--------|
|---3-----6----|---3---3--3--3--|---6---6--6--6--||-----6-(6)-6-6-6--------|
|---4-----6----|---4---4--4--4--|---6---6--6--6--||-----6-(6)-6-6-6--------|
|---4-----4----|---4---4--4--4--|---4---4--4--4--||------------------------|
|---2----------|---2---2--2--2--|----------------||------------------------|


      F#m                    G#m
   H.                Q     W
|-12----------------14--|---------------------|
|-----------------------|-12------------------|
|-----------------------|---------------------|
|-----------------------|---------------------|
|-----------------------|---------------------|
|-----------------------|---------------------|
|
|  E  E +S  S E e E  Q     E E +S  S E e E Q
|-----2-(2)-2-2-2-------|----4-(4)-4-4-4------|
|-----2-(2)-2-2-2-------|----4-(4)-4-4-4------|
|-----2-(2)-2-2-2-------|----4-(4)-4-4-4------|
|-----4-(4)-4-4-4-------|----2-(2)-2-2-2------|
|-----------------------|---------------------|
|-----------------------|---------------------|


     F#m                                  C#m
   |------3------|    |-----3-----|
   Q    Q        Q    Q    Q      Q    H.                Q
|-------------------------16-----19-|-21----------------------|
|---------------17---19-------------|-------------------------|
|-16---18---------------------------|-------------------18----|
|-----------------------------------|-------------------------|
|-----------------------------------|-------------------------|
|-----------------------------------|-------------------------|
|
|  E E    +S  S    E  e S    S Q       E  E +S  S E e E  Q
|----2----(2)-2----2--2-2----2------|-----4-(4)-4-4-4---------|
|----2----(2)-2----2--2-2----2------|-----5-(5)-5-5-5---------|
|----2----(2)-2----2--2-2----2------|-----6-(6)-6-6-6---------|
|----4----(4)-4----4--4-4----4------|-----6-(6)-6-6-6---------|
|-----------------------------------|-------------------------|
|-----------------------------------|-------------------------|


      F#m                    Emaj7
   H.                Q     W
|-------------------14--|---------------------|
|-17--------------------|---------------------|
|-----------------------|-16------------------|
|-----------------------|---------------------|
|-----------------------|---------------------|
|-----------------------|---------------------|
|
|  E  E +S  S E e E  Q     E E +S  S E e E Q
|-----2-(2)-2-2-2-------|----4-(4)-4-4-4------|
|-----2-(2)-2-2-2-------|----4-(4)-4-4-4------|
|-----2-(2)-2-2-2-------|----4-(4)-4-4-4------|
|-----4-(4)-4-4-4-------|----2-(2)-2-2-2------|
|-----------------------|---------------------|
|-----------------------|---------------------|


                 D.S. al Coda &
      F#m                        F#
   Q.          E  +Q       Q      W
|-14----------12-(12)---------||---------------|
|-------------------------14--||-14------------|
|-----------------------------||---------------|
|-----------------------------||---------------|
|-----------------------------||---------------|
|-----------------------------||---------------|
|
|  E  E +S  S  E   e  S S  Q      Q  Q  Q  Q
|-----2-(2)-2--2---2--2-2-----||--2--2--2--2---|
|-----2-(2)-2--2---2--2-2-----||--2--2--2--2---|
|-----2-(2)-2--2---2--2-2-----||--3--3--3--3---|
|-----4-(4)-4--4---4--4-4-----||--4--4--4--4---|
|-----------------------------||--4--4--4--4---|
|-----------------------------||--2--2--2--2---|


                  Out-Chorus
  C#                   C#m                     F#m
   W                H.                Q     H.                Q
|-13-----------||------------------------|-12----------------14--|
|--------------||o-12----------------14--|-----------------------|
|--------------||------------------------|-----------------------|
|--------------||------------------------|-----------------------|
|--------------||o-----------------------|-----------------------|
|--------------||------------------------|-----------------------|
|
|  Q  Q  Q  Q       E  E +S  S E e E  Q     E  E +S  S E e E  Q
|--------------||------4-(4)-4-4-4-------|-----2-(2)-2-2-2-------|
|--6--6--6--6--||o-----5-(5)-5-5-5-------|-----2-(2)-2-2-2-------|
|--6--6--6--6--||------6-(6)-6-6-6-------|-----2-(2)-2-2-2-------|
|--6--6--6--6--||------6-(6)-6-6-6-------|-----4-(4)-4-4-4-------|
|--4--4--4--4--||o-----------------------|-----------------------|
|--------------||------------------------|-----------------------|


     Emaj7                F#m
   W                    Q    E     E  +E   E    Q
|---------------------|-----------12-(12)------14----|
|-12------------------|-----14------------14---------|
|---------------------|------------------------------|
|---------------------|------------------------------|
|---------------------|------------------------------|
|---------------------|------------------------------|
|
|  E E +S  S E e E Q    E E +S  S  E   e   S S  Q
|----4-(4)-4-4-4------|---2-(2)-2--2---2---2-2-------|
|----4-(4)-4-4-4------|---2-(2)-2--2---2---2-2-------|
|----4-(4)-4-4-4------|---2-(2)-2--2---2---2-2-------|
|----2-(2)-2-2-2------|---4-(4)-4--4---4---4-4-------|
|---------------------|------------------------------|
|---------------------|------------------------------|


      C#m                     F#m
   H.                Q     H.                Q
|-----------------------|-12----------------14--|
|-12----------------14--|-----------------------|
|-----------------------|-----------------------|
|-----------------------|-----------------------|
|-----------------------|-----------------------|
|-----------------------|-----------------------|
|
|  E  E +S  S E e E  Q     E  E +S  S E e E  Q
|-----4-(4)-4-4-4-------|-----2-(2)-2-2-2-------|
|-----5-(5)-5-5-5-------|-----2-(2)-2-2-2-------|
|-----6-(6)-6-6-6-------|-----2-(2)-2-2-2-------|
|-----6-(6)-6-6-6-------|-----4-(4)-4-4-4-------|
|-----------------------|-----------------------|
|-----------------------|-----------------------|


      Emaj7                   F#m
   H.                Q     Q.          E  +Q       Q
|-------------------16--|-14----------12-(12)----------||
|-12--------------------|-------------------------14--o||
|-----------------------|------------------------------||
|-----------------------|------------------------------||
|-----------------------|-----------------------------o||
|-----------------------|------------------------------||
|
|  E  E +S  S E e E  Q     E  E +S  S  E   e  S S  Q
|-----4-(4)-4-4-4-------|-----2-(2)-2--2---2--2-2------||
|-----4-(4)-4-4-4-------|-----2-(2)-2--2---2--2-2-----o||
|-----4-(4)-4-4-4-------|-----2-(2)-2--2---2--2-2------||
|-----2-(2)-2-2-2-------|-----4-(4)-4--4---4--4-4------||
|-----------------------|-----------------------------o||
|-----------------------|------------------------------||


Duration Legend
---------------
W - whole; H - half; Q - quarter; E - 8th; S - 16th; T - 32nd; X - 64th; a - acciaccatura
+ - note tied to previous; . - note dotted; .. - note double dotted
Uncapitalized letters represent notes that are staccato (1/2 duration)
Irregular groupings are notated above the duration line
Duration letters will always appear directly above the note/fret number it represents the
duration for.  Duration letters with no fret number below them represent rests.  Multi-
bar rests are notated in the form Wxn, where n is the number of bars to rest for.  Low
melody durations appear below the staff

Tablature Legend
----------------
 h   - hammer-on
 p   - pull-off
 b   - bend
 pb  - pre-bend
 r   - bend release (if no number after the r, then release immediately)
 /\  - slide into or out of (from/to "nowhere")
 s   - legato slide
 S   - shift slide
  - natural harmonic
[n]  - artificial harmonic
n(n) - tapped harmonic
 ~   - vibrato
 tr  - trill
 T   - tap
 TP  - trem. picking
 PM  - palm muting
\n/  - tremolo bar dip; n = amount to dip
 \n  - tremolo bar down
 n/  - tremolo bar up
/n\  - tremolo bar inverted dip
 =   - hold bend; also acts as connecting device for hammers/pulls
 <>  - volume swell (louder/softer)
 x   - on rhythm slash represents muted slash
 o   - on rhythm slash represents single note slash

Misc Legend
-----------
 |  - bar
||  - double bar
||o - repeat start
o|| - repeat end
*|  - double bar (ending)
 :  - bar (freetime)
 $  - Segno
 &  - Coda
Tempo markers -  = BPM(8/16=s8/s16), where s8 = swing 8ths, s16 = swing 16ths

 
 
Bee Gees - Night Fever :: indexed at Ultimate Guitar.
Night Fever tabs @ 911Tabs

About the artist behind Night Fever:

The Bee Gees were a singing trio of brothers — Barry, Robin, and Maurice Gibb — that became one of the most successful musical acts of the 20th century. They were born on the Isle of Man to English parents, lived in Chorlton, Manchester, England and moved to Brisbane, Australia during their childhood years, where they began their musical careers. Their worldwide success came when they returned to England and signed with producer Robert Stigwood.

The multiple Grammy Award-winning group was successful for most of its forty years of recording music, but it had two distinct periods of exceptional success: as a harmonic "soft rock" act in the late 1960s and early 1970s, and as the foremost stars of the disco music era in the late 1970s.

No matter the style, the Bee Gees sang tight three-part harmonies that were instantly recognizable; as brothers, their voices blended perfectly, in the same way that The Everly Brothers' did. Barry sang lead on many songs, and an R&B falsetto introduced in the disco years; Robin provided the clear vibrato lead that was a hallmark of their pre-disco music; Maurice sang high and low harmonies throughout their career. The three brothers co-wrote most of their hits, and they said that they felt like they became 'one person' when they were writing. The group's name was retired after Maurice died in January 2003.

The Bee Gees were inducted into The Rock and Roll Hall of Fame in 1997; fittingly, the presenter of the award to "Britain's first family of harmony"[1] was Brian Wilson, leader of the Beach Boys, America's first family of rock harmony.

It has been estimated that the Bee Gees' record sales total more than 220 million, easily making them one of the best-selling music artists of all-time. The above figure in record sales does not include record sales for artists for whom they have written and with whom they have collaborated. Their 1997 Rock and Roll Hall of Fame citation says "Only Elvis Presley, The Beatles, Michael Jackson, Garth Brooks and Paul McCartney have outsold the Bee Gees".[2]

Indexed at Wikipedia.

Show us your talent, perform Night Fever!

Here you can post a video or audio performance. Tell me more ...
Where can we find your performance? Tell me more ...
Your comment:
Please, log in to post your performance.