Artists by letter: A B C D E F G H I J K L M N O P Q R S T U V W X Y Z 0-9

 
Broken Door
Intro
e|--------------------------|
B|--------------------------|
G|---------7--6-------------|
D|------7--------7----------|
A|---9--------------9-------|
D|--------------------------|

cont.
e|--------------------------|
B|--------------------------|
G|------------6-------------|
D|------7--------7-----7----| play this part twice each time you repeat
A|---5-----5--------5-------| the intro
D|--------------------------|

keep playing this until the chorus which is......
RHYTHM
e|-------------------------------------|
B|-------------------------------------|
G|-------------------------------------|
D|--000000--777777--222222--55555555---| repeat this twice
A|--000000--777777--222222--55555555---|
D|--000000--777777--222222--55555555---|

LEAD( I am not 100% positive on)
e|-----------------------------------|
B|--1717171717171717--151515151515---|
G|-----------------------------------| repeat this 6 times
D|-----------------------------------|
A|-----------------------------------|
D|-----------------------------------|

LEAD cont. (when he sings....everyday it seems...)
e|--15151515-14141414---------------|
B|---------------------15151515-----|
G|----------------------------------|
D|----------------------------------|
A|----------------------------------|
D|----------------------------------|

Lead then repeats but at the end (second time through) of the chorus instead of going to 
second part it goes to......

LEAD cont.
e|-----------------------------------|
B|-----10----12~---12^-10------------|
G|-----------------------------------|
D|-----------------------------------|
A|-----------------------------------|
D|-----------------------------------|

Rhythm then goes back to the intro
while lead plays

e|-------------------|------------------|
B|--10h12~--12^--10~-|--14~-10~--12~----|
G|-------------------|------------------|
D|-------------------|------------------|
A|-------------------|------------------|
D|-------------------|------------------|

after that repeat the chorus then...........

e|---------------------|--------------|
B|-------7-7p5---------|--------------|
G|--------------7------|--6---7---9---|
D|---0-------------7~--|----7---7-----|
A|---------------------|--------------|
D|---------------------|--------------|

play that the first and fourth time, for the second and third time play this.....

e|---------------------|--------------|
B|-------7-7p5---------|--------------|
G|--------------7------|--6---7-------|
D|---0-------------7~--|----7---7--7--|
A|---------------------|--------------|
D|---------------------|--------------|

then just play the first part then add this to the end

e|------------------------------------|
B|------------------------------------|
G|---12~------12p11------12---14------|
D|----x--------------12---------------|
A|---10~------------------------------|
D|------------------------------------|

after this repeat the chorus again which for the first time through it stays the same, 
then the lead breaks off and does this

e|-------------------------------------------------------------|
B|--12~--12~--11~----------------------------------------------|
G|-----------------777/999/111111---141414--999--111111--777---|
D|-----------------xxx/xxx/x-x-x-----x-x-x--xxx---x-x-x--xxx---|
A|-----------------555/777/9-9-9----121212--777---9-9-9--555---|
D|-------------------------------------------------------------|

CONT.
e|--------------------------|
B|--------------------------|
G|--7/9\7--777-999-111111---|
D|--x/x\x--xxx-xxx--x-x-x---|
A|--5/7\5--555-777--9-9-9---|
D|--------------------------|

repeat only the bar on top except for the first three notes
then at the end instead on the second part you play this

e|------------------------|
B|------------------------|
G|----111111--999--7~-----|
D|-----x-x-x--xxx--5~-----|
A|-----9-9-9--777--5~-----|
D|-----------------5~-----|

the other guitar ends on
e|--------------------------|
B|----------12~-------------|
G|--------------------------|
D|--------------------------|
A|--------------------------|
D|--------------------------|

That's all, please rate and comment.
 
 
Bedlight For Blue Eyes - Broken Door :: indexed at Ultimate Guitar.
Broken Door tabs @ 911Tabs

Quick tip, so you can enjoy Broken Door even more:

Try out the AutoScroller option ... It scrolls the page for you, so you can totally focus on nailing that solo. You can choose among different speeds using your mouse or your keyboard (keys 0, 1, 2 and 3).

Show us your talent, perform Broken Door!

Here you can post a video or audio performance. Tell me more ...
Where can we find your performance? Tell me more ...
Your comment:
Please, log in to post your performance.