Artists by letter: A B C D E F G H I J K L M N O P Q R S T U V W X Y Z 0-9

 
Hello Im In Delaware Tab
Artist: City and Colour
Song: Hello, I'm in Delaware
Album: Sometimes

Tabber: Jon Peacock (www.myspace.com/jonpeacock)


I don't normally do tabs but I believe everyone should have a right to be able to play
beautiful song, and there's lots of crappy C&C tabs out there.

Ok, so the ACTUAL tuning for this song is:

   HIGH

E down to Eb
B up to   C
G up to   Ab
D up to   Eb
A down to Ab
E down to Eb

   LOW

with capo on 4th fret.

Don't forget the capo!!

Now, play as follows:


eb|--0--0---------------------------0--0---|
C |--3--3--2/3p2p0------------------0--0---|
Ab|--2--2-----------2/4p2p0---------0--0---|
Eb|--0--0-------------------2/4p2p0-4--7---|
Ab|--4--0---------------------------4--7---|
Eb|--4--0---------------------------2--5---|

After singing and playing this a couple of times, he gets bored
and stops playing the riff, so just strum instead.


Repeat for a while, then pre-chorus:

eb|--0---------------------0--------0--0---------0----|
C |--0---------------------0--------0--0---------0----|
Ab|--0---------------------0--------0--0---------0----|
Eb|--4--------0h2h4--------4--------0h2h4--------7----|
Ab|--2--0h2h4-------2p0----4--0h2h4-------2p0----7----|
Eb|--0------------------4--2------------------4--5----|


Chorus: (but I will...)

eb|--0--0--0----|
C |--0--0--0----|
Ab|--0--0--0----|
Eb|--4--4--7----|
Ab|--2--4--7----|
Eb|--0--2--5----|


Repeat verse, pre-chorus, chorus and then..


Bridge! (my body aches...)

eb|--0--0--0--0--|
C |--0--0--0--0--|
Ab|--0--0--0--0--|
Eb|--0--0--4--7--|
Ab|--7--7--4--7--|
Eb|--4--5--2--5--|


then back to chorus.. and you're done!! Any errors or comments, contact me at
www.myspace.com/jonpeacock.

 
 
City And Colour - Hello Im In Delaware Tab :: indexed at Ultimate Guitar.
Hello Im In Delaware tabs @ 911Tabs

Quick tip, so you can enjoy Hello Im In Delaware Tab even more:

After the registration (which takes just 10 seconds, remember?) you will be able to use your profile - your very own piece of YourChords.com.

Show us your talent, perform Hello Im In Delaware Tab!

Here you can post a video or audio performance. Tell me more ...
Where can we find your performance? Tell me more ...
Your comment:
Please, log in to post your performance.