Artists by letter: A B C D E F G H I J K L M N O P Q R S T U V W X Y Z 0-9

My Heart Will Go On Tab (ver 5) - Celine Dion


 
My Heart Will Go On Tab
MY HEART WILL GO ON
As recorded by Celine Dion
(From the 1997 Album TITANIC SOUNDTRACK)


Transcribed by Mr DK

 Words by Will Jennings Music by James Horner
Arranged by Eric Roche
 

Gtr I (E A D G B E) - 'Untitled'


 Verse 1
  Q=104
  E                   Bsus4              A                    B7
 4/4
  Gtr I
  Q  E  E  +Q   E E   +Q   E E +Q.   E   Q  E E +E  E +E  E   +H     H
|----0-(0)-(0)------|------------------|------0-(0)-------4-|-(4)---------|
|-5-----5--(5)--5-4-|-(4)s=5-5-(5)---5-|-4s=5-------7-(7)---|--------7----|
|-------------------|------------------|--------------------|-------------|
|-------------------|------------------|--------------------|-------------|
|-------------------|------------------|--------------------|-------------|
|-------------------|------------------|--------------------|-------------|


  E                   Bsus4             Asus2               B5
  Q  E  E  +Q   E E   +Q   H     E  E   +W           +H       H
|----0-(0)-(0)------|-----------------|------------|----------------||
|-5-----5--(5)--5-4-|-(4)--5----(0)-0-|-(0)--------|-(0)--------||
|-------------------|-----------------|------------|----------------||
|-------------------|-----------------|------------|----------------||
|-------------------|-----------------|------------|----------------||
|-------------------|-----------------|------------|----------------||


 Verse 2
  E                    Bsus4
  Q  E E +E  E +E  E   +Q   E E +Q.   E
|-0--0-0-(0)-0-(0)---|------0-0-(0)-----|
|------------------4-|-(4)------------4-|
|-1------------------|------------------|
|--------------------|--4---------------|
|--------------------|------------------|
|-0------------------|-(0)--------------|
  W                     W


  A                        B7
  +Q   E E  E   E  +E  E   +H       H
|------0-0--0---2--(2)-4-|-(4)------2----|
|-(4)--------------------|---------------|
|--------1-(1)-(1)-------|-------2-------|
|------------------------|-----4---------|
|--0---------------------|--2------------|
|------------------------|---------------|
   W                        E  E Q  H


  E                    Bsus4           Asus2                         B5
  Q  E E +E  E +E  E   +Q   H    E E   +H        H            +W
|-0--0-0-(0)-0-(0)---|------0--------|--------------------0-|-(0)---------||
|------------------4-|-(4)-------0-0-|-(0)----------0-(0)---|-------------||
|-1------------------|---------------|--------2-(2)---------|-------------||
|--------------------|--4------------|------2---------------|-------------||
|--------------------|---------------|--0-------------------|--------2----||
|-0------------------|-(0)-----------|----------------------|-------------||
  W                     W               Q   E E +E  E +E  E    H     H


 Chorus
  C#m7               B/D#               Aadd9            B13
  H    +Q     E  E   +Q.    E  H        Q.   E E E E E   +H         Q   E E
|------------------|------------------|-7----5---4---2-|-(2)--------4---5-4--|
|-5----(5)----5--7-|-(7)--------------|----------------|---------4-(4)-------|
|----------4-(4)---|--------4-(4)--4--|-6--------------|-------2-------------|
|-6-----6----------|------4-----------|----------------|-----4---------------|
|-4----------------|--6---------------|-0--------------|--2------------------|
|------------------|------------------|----------------|---------------------|
  H     E  E +Q       Q   E E +Q   Q    W                 E  E E E +H


  C#m7                B
  +H        Q   E E   +H        Q   Q
|-(4)---------------|------------------|
|-----------7---5-4-|-(4)-------5---4--|
|-------4--(4)------|-------4--(4)-----|
|-----6-------------|-----4------------|
|--4----------------|------------------|
|-------------------|--7---------------|
   E  E Q  +H          E  E Q  +H


  A          B5         C#m7
  W          W          H    +Q     E  E
|----------|----------|-------------------|
|----------|----------|-5----(5)----5--7--|
|-6--------|----------|----------4-(4)----|
|----------|----------|-6-----6-----------|
|----------|----------|-4-----------------|
|-5--------|-7--------|-------------------|
  W                     H     E  E +Q


  B/D#               E/A  A   E       B13                  C#m7
  +Q.    E  H        Q.   E E E E E   +H         Q   E E   +H        Q   E E
|------------------|-7----5---4---2-|-(2)--------4---5-4-|-(4)----------------|
|-(7)--------------|-9----5---5-----|---------4-(4)------|-----------7---5-4--|
|--------4-(4)--4--|-9----6---4-----|-------2------------|-------4--(4)-------|
|------4-----------|----------------|-----4--------------|-----6--------------|
|--6---------------|-0--------------|--2-----------------|--4-----------------|
|------------------|----------------|--------------------|--------------------|
   Q   E E +Q   Q    H      H          E  E E E +H          E  E Q  +H


  G#m7               B/A               B7
  +Q    H       Q     Q  E E E E E E   +H        H
|------------------|---------------4-|-(4)-------2-----||
|-(4)---5-------4--|-^4--5-5---7-----|-----------------||
|------------------|-^4--6-6---8-----|-------2--(2)----||
|-----4-6--(6)-----|-----------------|-----4-----------||
|------------------|--0--------------|--2--------------||
|--4---------------|-----------------|-----------------||
   E  E Q  +H         W                 E  E Q  +H


   Interlude
    C#m               B5                 Amaj7                  B5
    H.      +E  S S   E E +Q   a Q  Q    Q.   E +E  a E +E  E    W
||------------------|------------------|----------------------|---------||
||o-----------------|---0-(0)-------0--|------0-(0)-----------|--------o||
||--1-------(1)-----|------------------|-6--------------------|---------||
||--2-------(2)-4p2-|-4--------4s6-----|-6----------4s6-(6)s4-|-(4)-----||
||o-4-------(4)-----|-2----------------|-0--------------------|--2-----o||
||------------------|------------------|----------------------|---------||
                                         W


 Verse 3
  E                    Bsus4
  Q  E E +E  E +E  E   +Q     E  E +Q.   E
|-0--0-0-(0)-0-(0)---|--------0--0-(0)-----|
|------------------4-|-(4)---------------4-|
|-1------------------|---------------------|
|--------------------|-----4-(4)-----------|
|--------------------|--2------------------|
|-0------------------|---------------------|
  W                     E  E +H.


  A                         B7
  +Q     E  E +E  E +E  E   +H         H
|--------0--0-(0)-2-(2)-4-|-(4)--------2-----|
|-(4)---------------------|---------4-(4)----|
|-------------------------|-------2----------|
|-----2-(2)---------------|-----4------------|
|--0----------------------|--2---------------|
|-------------------------|------------------|
   E  E +H.                  E  E E E +H


  E                    Bsus4                     A5                     B5
  Q  E E +E  E +E  E   +Q     E  E +E  E +E  E   +W               H     H
|-0--0-0-(0)-0-(0)---|--------0--0-(0)---------|---------------|-------------||
|------------------4-|-(4)-------------0-(0)-0-|-(0)-----------|-------------||
|-1------------------|-------------------------|-------2-------|-------------||
|--------------------|-----4-(4)---------------|-----2---------|-------------||
|--------------------|--2----------------------|--0------------|-(0)----2----||
|-0------------------|-------------------------|---------------|-------------||
  W                     E  E +H.                  E  E H.


 Verse 4
  E                    Bsus4
  Q  E E +E  E +E  E   +Q     E  E +Q.   E
|-0--0-0-(0)-0-(0)---|--------0--0-(0)-----|
|------------------4-|-(4)---------------4-|
|-1------------------|---------------------|
|--------------------|-----4-(4)-----------|
|--------------------|--2------------------|
|-0------------------|---------------------|
  W                     E  E +H.


  A                         B7
  +Q     E  E +E  E +E  E   +H         H
|--------0--0-(0)-2-(2)-4-|-(4)--------2-----|
|-(4)---------------------|---------4-(4)----|
|-------------------------|-------2----------|
|-----2-(2)---------------|-----4------------|
|--0----------------------|--2---------------|
|-------------------------|------------------|
   E  E +H.                  E  E E E +H


  E                    Bsus4
  Q  E E +E  E +E  E   +Q     E  E +E  E +E  E
|-0--0-0-(0)-0-(0)---|--------0--0-(0)---------|
|------------------4-|-(4)-------------0-(0)-0-|
|-1------------------|-------------------------|
|--------------------|-----4-(4)---------------|
|--------------------|--2----------------------|
|-0------------------|-------------------------|
  W                     E  E +H.


  Asus2                             B5
                           <
   E  E E E +E  E +E  E    E  E E E E E E E
|---------------0-(0)---|--------------------||
|-(0)-----0-(0)-------0-|-(0)-----0-------0--||
|-------2---------------|-------2-------4----||
|-----2-----------------|-----2-------4------||
|--0--------------------|--0--------2--------||
|-----------------------|--------------------||


 Chorus
  C#m7               B/D#               E/A  A   E       B13
  H    +Q     E  E   +Q.    E  H        Q.   E E E E E   +H         Q   E E
|------------------|------------------|-7----5---4---2-|-(2)--------4---5-4--|
|-5----(5)----5--7-|-(7)--------------|-9----5---5-----|---------4-(4)-------|
|----------4-(4)---|--------4-(4)--4--|-9----6---4-----|-------2-------------|
|-6-----6----------|------4-----------|----------------|-----4---------------|
|-4----------------|--6---------------|-0--------------|--2------------------|
|------------------|------------------|----------------|---------------------|
  H     E  E +Q       Q   E E +Q   Q    H      H          E  E E E +H


  C#m7                B
  +H        Q   E E   +H        Q   Q
|-(4)---------------|------------------|
|-----------7---5-4-|-(4)-------5---4--|
|-------4--(4)------|-------4--(4)-----|
|-----6-------------|-----4------------|
|--4----------------|------------------|
|-------------------|--7---------------|
   E  E Q  +H          E  E Q  +H


  A          B5         C#m7
  W          W          H    +Q     E  E
|----------|----------|-------------------|
|----------|----------|-5----(5)----5--7--|
|-6--------|----------|----------4-(4)----|
|----------|----------|-6-----6-----------|
|----------|----------|-4-----------------|
|-5--------|-7--------|-------------------|
  W                     H     E  E +Q


  B/D#               E/A  A   E       B13                  C#m7
  +Q.    E  H        Q.   E E E E E   +H         Q   E E   +H        Q   E E
|------------------|-7----5---4---2-|-(2)--------4---5-4-|-(4)----------------|
|-(7)--------------|-9----5---5-----|---------4-(4)------|-----------7---5-4--|
|--------4-(4)--4--|-9----6---4-----|-------2------------|-------4--(4)-------|
|------4-----------|----------------|-----4--------------|-----6--------------|
|--6---------------|-0--------------|--2-----------------|--4-----------------|
|------------------|----------------|--------------------|--------------------|
   Q   E E +Q   Q    H      H          E  E E E +H          E  E Q  +H


  G#m7               B/A               B7
  +Q    H       Q     Q  E E E E E E   +H        H
|------------------|---------------4-|-(4)-------2-----||
|-(4)---5-------4--|-^4--5-5---7-----|-----------------||
|------------------|-^4--6-6---8-----|-------2--(2)----||
|-----4-6--(6)-----|-----------------|-----4-----------||
|------------------|--0--------------|--2--------------||
|--4---------------|-----------------|-----------------||
   E  E Q  +H         W                 E  E Q  +H


 Interlude
  C#m               B5                 Amaj7                  B5
  H.      +E  S S   E E +Q   a Q  Q    Q.   E +E  a E +E  E    W
|-----------------|------------------|----------------------|--------|
|-----------------|---0-(0)-------0--|------0-(0)-----------|--------|
|-1-------(1)-----|------------------|-6--------------------|--------|
|-2-------(2)-4p2-|-4--------4s6-----|-6----------4s6-(6)s4-|-(4)----|
|-4-------(4)-----|-2----------------|-0--------------------|--2-----|
|-----------------|------------------|----------------------|--------|
                                       W


  C#m               B5                 Amaj7                  G#m
  H.      +E  S S   E E +Q   a Q  Q    Q.   E +E  a E +E  E    W
|-----------------|------------------|----------------------|--------||
|-----------------|---0-(0)-------0--|------0-(0)-----------|--------||
|-1-------(1)-----|------------------|-6--------------------|--------||
|-2-------(2)-4p2-|-4--------4s6-----|-6----------4s6-(6)s4-|-(4)----||
|-4-------(4)-----|-2----------------|-0--------------------|--------||
|-----------------|------------------|----------------------|--4-----||
                                       W


 Chorus (Key Change)
  Fm                   Gm
  H      +E  E +E  E   +H       +E  E +Q
|-4------(4)-4-(4)-6-|-(6)------(6)--------|
|--------------------|--------------4-(4)--|
|------1-(1)---------|--------3-(3)--------|
|----3---------------|------5--------------|
|--------------------|---------------------|
|-1------------------|--3------------------|
  Q  E E +Q.       E    Q   E E +H


  Dbsus2                     Eb13
   Q.      E +E   E  +E  E   +H        Q   E E
|-11-------9-(9)---------6-|-(6)-------8---9-8--|
|--------9---(9)-13-(13)---|--------------------|
|-----10-------------------|-------8--(8)-------|
|--------------------------|-----8--------------|
|--------------------------|--6-----------------|
|--9-----------------------|--------------------|
   E   E Q   +Q.         E    E  E Q  +H


  Fm7                  Eb
  +H         Q   E E   +Q     Q   +E  E +E   E
|-(8)----------------|-------------------------|
|-----------11---9-8-|-(8)----9---(9)-8-(8)----|
|--------8--(8)------|----------------------10-|
|-----10-------------|-----8-(8)--(8)----------|
|--8-----------------|-------------------------|
|--------------------|-11----------------------|
   E   E Q  +Q.    E    E  E +Q   +Q.        E


  Dbadd9                                    Ebsus2
   +Q.        E   Q.       E   +H           H
|--------------------------9-|-(9)-------------------|
|--------------------9-(9)---|--------------------6--|
|-(10)-------10-(10)---------|-----------10-----8----|
|---------13-----------------|--------13------8------|
|------11--------------------|-----11-------6--------|
|---9------------------------|--9--------------------|
    E   E  E  E  +E  E +E  E    E   E  E  E E E E E


  Fm                     Gm
  H       +E  E +E   E    +H        +E  E +Q
|----------------------|-----------------------|
|-9-------(9)-9-(9)-11-|-(11)------(11)--------|
|-------8-(8)----------|---------8--(8)-8-(8)--|
|----10----------------|-------8---------------|
|-8--------------------|--10-------------------|
|----------------------|-----------------------|
  Q   E E +H               Q   E E  +E  E  Q


  Dbsus2                     Eb13
   Q.      E +E   E  +E  E   +H        Q   E E
|-11-------9-(9)---------6-|-(6)-------8---9-8--|
|--------9---(9)-13-(13)---|--------------------|
|-----10-------------------|-------8--(8)-------|
|--------------------------|-----8--------------|
|--------------------------|--6-----------------|
|--9-----------------------|--------------------|
   E   E Q   +Q.         E    E  E Q  +H


  Fm7                  Ebsus4/Cb
  +H         Q   E E   +Q    Q  +Q   Q
|-(8)----------------|------------------|
|-----------11---9-8-|-(8)---9--(9)--8--|
|--------8--(8)------|-------8--(8)-----|
|-----10-------------|-----8------------|
|--8-----------------|------------------|
|--------------------|--8---------------|
   E   E Q  +Q.    E    E  E Q  +H


  Ebsus4/Db                 Ebsus2            Ab
  Q    E  E +E   E  +E  E   +H        H        W
|-----------------------8-|-(8)-------6-----|-^4----*|
|-8----9--9-(9)-11-(11)---|-------6--(6)----|-^4----*|
|---------8-(8)-----------|-----8-----------|-^5----*|
|---8-(8)-----------------|-----------------|-------*|
|-------------------------|--6--------------|-------*|
|-9-----------------------|-----------------|-^4----*|
  E E +E  E +Q.         E    E  E Q  +H




--------------------------------------------------------------------------------


Duration Legend
---------------
W - whole; H - half; Q - quarter; E - 8th; S - 16th; T - 32nd; X - 64th; a - acciaccatura
+ - note tied to previous; . - note dotted; .. - note double dotted
Uncapitalized letters represent notes that are staccato (1/2 duration)
Irregular groupings are notated above the duration line
Duration letters will always appear directly above the note/fret number it represents the
duration for.  Duration letters with no fret number below them represent rests.  Multi-
bar rests are notated in the form Wxn, where n is the number of bars to rest for.  Low
melody durations appear below the staff

Tablature Legend
----------------
 h   - hammer-on
 p   - pull-off
 b   - bend
 pb  - pre-bend
 r   - bend release (if no number after the r, then release immediately)
 /  - slide into or out of (from/to "nowhere")
 s   - legato slide
 S   - shift slide
 - natural harmonic
[n]  - artificial harmonic
n(n) - tapped harmonic
 ~   - vibrato
 tr  - trill
 T   - tap
 TP  - trem. picking
 PM  - palm muting
n/  - tremolo bar dip; n = amount to dip
 n  - tremolo bar down
 n/  - tremolo bar up
/n  - tremolo bar inverted dip
 =   - hold bend; also acts as connecting device for hammers/pulls
  - volume swell (louder/softer)
 x   - on rhythm slash represents muted slash
 o   - on rhythm slash represents single note slash

Misc Legend
-----------
 |  - bar
||  - double bar
||o - repeat start
o|| - repeat end
*|  - double bar (ending)
 :  - bar (freetime)
 $  - Segno
 &  - Coda
Tempo markers -  = BPM(8/16=s8/s16), where s8 = swing 8ths, s16 = swing 16ths




 
 
Celine Dion - My Heart Will Go On Tab :: indexed at Ultimate Guitar.
My Heart Will Go On tabs @ 911Tabs

About the artist behind My Heart Will Go On Tab:

Dion had first gained international recognition in the 1980s after she won the 1982 Yamaha World Popular Song Festival and the 1988 Eurovision Song Contest.[6][7] Following a series of French albums in the early 1980s, she signed on to Sony Records in 1986. During the 1990s, with the help of Angélil, she achieved worldwide success with several English and French albums, becoming one of the most successful artists in pop music.[8][9] However, in 1999 at the height of her success, Dion announced a temporary retirement from entertainment in order to start a family and spend time with her husband, who had been diagnosed with cancer.[10][9] She returned to the music scene in 2002 and signed a three-year (later extended to almost five years) contract to perform nightly in a five-star theatrical show at the Colosseum at Caesars Palace, Las Vegas.[11][12]

Dion's music has been influenced by genres ranging from pop, soul, and rock to gospel and classical, and while her releases have often received mixed critical reception, she is renowned for her technically skilled and powerful vocals.[13][14][15] In 2004, after amassing 175 million in album sales, she was presented with the Chopard Diamond Award from the World Music Awards show for becoming the "Best-selling Female Artist in the World".[16][17] In April 2007 Sony BMG announced that Celine Dion had sold more than 200 million albums worldwide.[18]

Indexed at Wikipedia.

Show us your talent, perform My Heart Will Go On Tab!

Here you can post a video or audio performance. Tell me more ...
Where can we find your performance? Tell me more ...
Your comment:
Please, log in to post your performance.