Artists by letter: A B C D E F G H I J K L M N O P Q R S T U V W X Y Z 0-9

 
Take On The World
-----------------------------------------------------------------
Take On The Worldâ€" You Me At Six
-----------------------------------------------------------------
Tabbed by: Yasmin Reevell
Email: [email protected]

Tuning: Standard
This specific tab is based off the studio recorded version.

Intro:
e|--------------|
B|--------------|
G|-11--7--6--4--|
D|--------------| x2
A|-9---5--4--2--|
E|--------------|

Verse:
e|----------------------------|-------|-------------|-------------|
B|----------------------------|-------|-------------|-------------|
G|-11-11-11-11-11-11-11-11-11-|-6-6-6-|-7-7-7-7-7-7-|-4-4-4-4-4-4-|
D|----------------------------|-------|-------------|-------------| x4
A|-9--9--9--9--9--9--9--9--9--|-4-4-4-|-5-5-5-5-5-5-|-2-2-2-2-2-2-|
E|----------------------------|-------|-------------|-------------| 

e|----------------------------|---------------------|
B|----------------------------|---------------------|
G|-11-11-11-11-11-11-11-11-11-|-6-6-6-7-7-7-7-7-7-4-|
D|----------------------------|---------------------| 
A|-9--9--9--9--9--9--9--9--9--|-4-4-4-5-5-5-5-5-5-2-|
E|----------------------------|---------------------| 

Chorus:
e|-------------------------|-------------------------------------------------|
B|-------------------------|-------------------------------------------------|
G|-11-11-11-11-11-11-11-11-|-7-7-7-7-7-7-7-7-6-6-6-6-6-6-6-6-4-4-4-4-4-4-4-4-|
D|-------------------------|-------------------------------------------------| x3
A|-9--9--9--9--9--9--9--9--|-5-5-5-5-5-5-5-5-4-4-4-4-4-4-4-4-2-2-2-2-2-2-2-2-|
E|-------------------------|-------------------------------------------------|

e|-------------------------|-----------------|-----|
B|-------------------------|-----------------|-----|
G|-11-11-11-11-11-11-11-11-|-7-7-7-7-7-7-7-7-|-6-4-|
D|-------------------------|-----------------|-----| 
A|-9--9--9--9--9--9--9--9--|-5-5-5-5-5-5-5-5-|-4-2-|
E|-------------------------|-----------------|-----|

Verse:
e|-------------|----------------|
B|-------------|----------------|
G|-11-11-11-11-|-11-11-11-11-11-|
D|-------------|----------------| 
A|-9--9--9--9--|-9--9--9--9--9--|
E|-------------|----------------| 

e|---===----------------------|-------|-------------|-------------|
B|----------------------------|-------|-------------|-------------|
G|-11-11-11-11-11-11-11-11-11-|-6-6-6-|-7-7-7-7-7-7-|-4-4-4-4-4-4-|
D|----------------------------|-------|-------------|-------------| x3
A|-9--9--9--9--9--9--9--9--9--|-4-4-4-|-5-5-5-5-5-5-|-2-2-2-2-2-2-|
E|----------------------------|-------|-------------|-------------| 

e|----------------------------|-------|-------------|-----|
B|----------------------------|-------|-------------|-----|
G|-11-11-11-11-11-11-11-11-11-|-6-6-6-|-7-7-7-7-7-7-|-4-4-|
D|----------------------------|-------|-------------|-----| 
A|-9--9--9--9--9--9--9--9--9--|-4-4-4-|-5-5-5-5-5-5-|-2-2-|
E|----------------------------|-------|-------------|-----| 

Chorus:
e|-------------------------|-----------------|-----------------|-----------------|
B|-------------------------|-----------------|-----------------|-----------------|
G|-11-11-11-11-11-11-11-11-|-7-7-7-7-7-7-7-7-|-6-6-6-6-6-6-6-6-|-4-4-4-4-4-4-4-4-|
D|-------------------------|-----------------|-----------------|-----------------| x3
A|-9--9--9--9--9--9--9--9--|-5-5-5-5-5-5-5-5-|-4-4-4-4-4-4-4-4-|-2-2-2-2-2-2-2-2-|
E|-------------------------|-----------------|-----------------|-----------------|

e|-------------------------|-----------------|-----------------|---------------------------------|
B|-------------------------|-----------------|-----------------|---------------------------------|
G|-11-11-11-11-11-11-11-11-|-7-7-7-7-7-7-7-7-|-6-6-6-6-6-6-6-6-|-4-4-4-4-4-4-4-4-4-4-4-4-4-4-4-4-|
D|-------------------------|-----------------|-----------------|---------------------------------| 
A|-9--9--9--9--9--9--9--9--|-5-5-5-5-5-5-5-5-|-4-4-4-4-4-4-4-4-|-2-2-2-2-2-2-2-2-2-2-2-2-2-2-2-2-|
E|-------------------------|-----------------|-----------------|---------------------------------|

(Guitar 1)
e|-------------------------|-----------------|-----------------|-----------------|
B|-------------------------|-----------------|-----------------|-----------------|
G|-11-11-11-11-11-11-11-11-|-7-7-7-7-7-7-7-7-|-6-6-6-6-6-6-6-6-|-4-4-4-4-4-4-4-4-|
D|-------------------------|-----------------|-----------------|-----------------| x5
A|-9--9--9--9--9--9--9--9--|-5-5-5-5-5-5-5-5-|-4-4-4-4-4-4-4-4-|-2-2-2-2-2-2-2-2-|
E|-------------------------|-----------------|-----------------|-----------------|

e|----|---|-----------------|-----------------|
B|----|---|-----------------|-----------------|
G|-11-|-7-|-6-6-6-6-6-6-6-6-|-4-4-4-4-4-4-4-4-|
D|----|---|-----------------|-----------------| 
A|-9--|-5-|-4-4-4-4-4-4-4-4-|-2-2-2-2-2-2-2-2-|
E|----|---|-----------------|-----------------|

(Guitar 2)
e|----------|---------|---------|-------------|
B|----------|---------|---------|-------------|
G|-7-14--11-|-7-14-11-|-7-14-11-|-7-14-11-9-7-|
D|----------|---------|---------|-------------| 
A|----------|---------|---------|-------------|
E|----------|---------|---------|-------------|
Repeat as necessary

e|-------------------------|-----------------|-----------------|-----------------|
B|-------------------------|-----------------|-----------------|-----------------|
G|-11-11-11-11-11-11-11-11-|-7-7-7-7-7-7-7-7-|-6-6-6-6-6-6-6-6-|-4-4-4-4-4-4-4-4-|
D|-------------------------|-----------------|-----------------|-----------------| x2
A|-9--9--9--9--9--9--9--9--|-5-5-5-5-5-5-5-5-|-4-4-4-4-4-4-4-4-|-2-2-2-2-2-2-2-2-|
E|-------------------------|-----------------|-----------------|-----------------|

e|-------------------------|-----------------|-------------------|
B|-------------------------|-----------------|-------------------|
G|-11-11-11-11-11-11-11-11-|-7-7-7-7-7-7-7-7-|-6-6-6-6-6-6-6-6-4-|
D|-------------------------|-----------------|-------------------| 
A|-9--9--9--9--9--9--9--9--|-5-5-5-5-5-5-5-5-|-4-4-4-4-4-4-4-4-2-|
E|-------------------------|-----------------|-------------------|
 
 
You Me At Six - Take On The World :: indexed at Ultimate Guitar.
Take On The World tabs @ 911Tabs

Quick tip, so you can enjoy Take On The World even more:

After the registration (which takes just 10 seconds, remember?) you will be able to use your profile - your very own piece of YourChords.com.

Show us your talent, perform Take On The World!

Here you can post a video or audio performance. Tell me more ...
Where can we find your performance? Tell me more ...
Your comment:
Please, log in to post your performance.