Artists by letter: A B C D E F G H I J K L M N O P Q R S T U V W X Y Z 0-9

 
Spell It Out
This is a very simplified way to play the song more than an accurate version.
It's still super fun to play though, especially on acoustic :)

[1st Part]
[Intro/Verse/1st & 2nd Chorus]
e|--------------------------------------------------|
B|--------------------------------------------------|
G|----77----77----55----55--------------------------|
D|----------------------------55----55----77----77--|
A|--55----55----33----33----------------------------|
E|--------------------------33----33----55----55----|
Repeat throughout the song until the second "battle on through" then go to powerchords:

[2nd Part]
[Bridge thing/3rd Chorus]

Just strum up & down throughout in whatever pattern you want really,
this is just a guide that sounds good to me!
e|-----------------------------------------------------------------------------------|
B|-----------------------------------------------------------------------------------|
G|--777--x--77777--x-x--555--x--55555--x-x-------x---------x-x-------------------xx--|
D|--777--x--77777--x-x--555--x--55555--x-x--555--x--55555--x-x--7777777777777777-xx--|
A|--555--x--55555--x-x--333--x--33333--x-x--555--x--55555--x-x--7777777777777777-xx--|
E|-------x----- ---x-x-------x---------x-x--333--x--33333--x-x--5555555555555555-xx--|

Repeat 3x on it's own the continue it with the rest of the lyrics again.

[Outro]
On the last bit you can play this outro,
though it's mostly just different strumming then back to the 1st part.
e|------------------------------------------------------------------------------------|
B|------------------------------------------------------------------------------------|
G|--777--x--77777--x-x--555--x--55555--x-x-------x---------x-x------xx----xx----xx7~--|
D|--777--x--77777--x-x--555--x--55555--x-x--555--x--55555--x-x--7777xx7777xx7777xx7~--|
A|--555--x--55555--x-x--333--x--33333--x-x--555--x--55555--x-x--7777xx7777xx7777xx5~--|
E|-------x----- ---x-x-------x---------x-x--333--x--33333--x-x--5555xx5555xx5555xx----|

Then straight into this for when the softer singing start again:
e|--------------------------------------------------|
B|--------------------------------------------------|
G|----77----77----55----55--------------------------|
D|----------------------------55----55----77----77--|
A|--55----55----33----33----------------------------|
E|--------------------------33----33----55----55----| (x1)

e|------------------------------------------|
B|------------------------------------------|
G|----77----77----55----55------------------|
D|----------------------------55----55--7~--|
A|--55----55----33----33----------------x---|
E|--------------------------33----33----5~--| 
 
************************************

| x  Mute Strings
| ~  Hold Note 

************************************
 
 
You Me At Six - Spell It Out :: indexed at Ultimate Guitar.
Spell It Out tabs @ 911Tabs

Quick tip, so you can enjoy Spell It Out even more:

If you spend just 10 seconds to register, you will be able to comment on all the chords and tabs and rate them. You will as well be able to comment on videos of your fellow guitarists and give them ratings from 1 to 5 ... And - of course - you can share your own videos with them and see what they think of you. :)
Click here to join us!

Show us your talent, perform Spell It Out!

Here you can post a video or audio performance. Tell me more ...
Where can we find your performance? Tell me more ...
Your comment:
Please, log in to post your performance.