Artists by letter: A B C D E F G H I J K L M N O P Q R S T U V W X Y Z 0-9

 
Brand New
[Intro]
GUitar 1
E|--------------------------------------|
B|--------------------------------------|
G|-----------5--5--5-----------9--9--9--| X2
D|--3--3--3-----------7--7--7-----------|
A|--------------------------------------|
E|--------------------------------------|

[Verse 1]
Guitar 1
E|--------------------------------------|
B|--------------------------------------|
G|-----------5--5--5-----------9--9--9--| X8
D|--3--3--3-----------7--7--7-----------|
A|--------------------------------------|
E|--------------------------------------|

GUitar 2
E|------------------------------------------------|
B|-------8--------------------------8-------------|
G|---5-------5--5(let ring)-----5-------5---5\2---| X6
D|------------------------------------------------|
A|------------------------------------------------|
E|------------------------------------------------|

[Pre-Chorus]
Guitar 1
E|--------------------------------------------------------------------------|
B|--------------------------------------------------------------------------|
G|--------------------------------------------------------------------------|
D|----5-----------7--------------3--------------5--------7---------------3--|
A|----5-----------7--------------3--------------5--------7---------------3--|
E|----3-----------5--------------1--------------3--------5---------------1--|

Guitar 2
E|---------------------------------------------------------------------------------------------------------|
B|-3-3-3-3-3-3-3-3-3^3^3^3^3^3^3^3^-33333333------3-3-3-3-3-3-3-3-3^3^3^3^3^3^3^3^-3-3-3-3-3-1-1-1-1-1-1-1-|
G|---------------------------------------------------------------------------------------------------------|
D|---------------------------------------------------------------------------------------------------------|
A|---------------------------------------------------------------------------------------------------------|
E|---------------------------------------------------------------------------------------------------------|

[Chorus]
E|---------------------------------------|
B|---------------------------------------|
G|----5--------------5-------------------| X2
D|----5--5--3-----3--5--5----------------|
A|----3--5--3-----3--3--5----------------|
E|-------3--1-----1-----3----------------|

[Verse 2]
E|------------------------------------------------|
B|-------8--------------------------8-------------|
G|---5-------5--5(let ring)-----5-------5---5\2---| X2
D|------------------------------------------------|
A|------------------------------------------------|
E|------------------------------------------------|


[Small bass part]


E|------------------------------------------------|
B|-------8--------------------------8-------------|
G|---5-------5--5(let ring)-----5-------5---------|
D|------------------------------------------------|
A|------------------------------------------------|
E|------------------------------------------------|


E|--------------------|
B|--------13----------|
G|-----------14-------| X4
D|--------------------|
A|--------------------|
E|--------------------|

[Pre-Chorus]
E|----------------------------------------|
B|----------------------------------------|
G|----------------------------------------|
D|----5--------------7--------------3-----|
A|----5--------------7--------------3-----|
E|----3--------------5--------------1-----|

[Chorus]
E|---------------------------------------|
B|---------------------------------------|
G|----5--------------5-------------------|
D|----5--5--3-----3--5--5----------------| X8
A|----3--5--3-----3--3--5----------------|
E|-------3--1-----1-----3----------------|

[Solo]

E|------------------------------------------------------------------------|
B|-----------------------------------------10-8-5-3-5-8-5-3---------------|
G|------------------------------------------------------------------------|
D|--------0-0-0-2-2-2-2-2-2-2-2-5-7-5-2-0-0-------------------------------|
A|---3-3-3----------------------------------------------------------------|
E|------------------------------------------------------------------------|

 

************************************

| \  Slide down
 

************************************
 
 
You Me At Six - Brand New :: indexed at Ultimate Guitar.
Brand New tabs @ 911Tabs

Quick tip, so you can enjoy Brand New even more:

You might want to transpose the song if it is too high or too low for you to sing. Just click the desired option while playing a song and all the chords will automatically be transponded into a new key.

Show us your talent, perform Brand New!

Here you can post a video or audio performance. Tell me more ...
Where can we find your performance? Tell me more ...
Your comment:
Please, log in to post your performance.