Artists by letter: A B C D E F G H I J K L M N O P Q R S T U V W X Y Z 0-9

 
Paper Walls
I just got into Yellowcard in late 2015, and found the existing tabs for this song to be very
inaccurate. This song is a full step down, and though some of the chords may look strange, I 
promise they are correct. Check out my Guitar Pro tab for better detail!

This song is in 6/8 time signature.

[Choir Intro]

Acoustic Guitar 

"Lets burn a hole..."        Repeat 3 1/2 times.

D|--0-----------------|--0-----------------|--0--0-0-0-0-0--0-0-0----|--0--0-0-0-0-0--0-0-0-0----|
A|--0-----------------|--0-----------------|--0--0-0-0-0-0--0-0-0----|--0--0-0-0-0-0--0-0-0-0----|
F|--4-----------------|--2-----------------|--1--1-1-1-1-1--1-1-1-2--|--1--1-1-1-1-x--x-x-x-x----|
C|--2-----------------|--2-----------------|--2--2-2-2-2-2--2-2-2-2--|--2--2-2-2-2-4--4-4-4-4----|
G|--4-----------------|--0-----------------|--2--2-2-2-2-2--2-2-2-2--|--2--2-2-2-2-2--2-2-2-2----|
D|--------------------|--------------------|--0--0-0-0-0-0--0-0-0----|--0--0-0-0-0-0--0-0-0-0----|

"... won."

D|--0----|
A|--0----|
F|--1----|
C|--2----|
G|--2----|
D|--0----|

[Guitar Intro]

Guitars 1 and 2 (Distorted)

D|------|---------------------|--------------------|--------------------|----------------------|
A|------|---------------------|--------------------|--------------------|----------------------|
F|------|-----------8--8--8~--|-----------8--9-----|--------------------|----------------------| Repeat 2xs
C|------|--6---6--6-x--x--x---|--6---6--6-x--x-----|--------------------|--6---6--6------------|
G|------|--7---7--7-6--6--6~--|--7---7--7-6--7-----|--6---6--0-2--2--2--|--4---4--4---/6-------|
D|--2/--|--0---0--0-----------|--0---0--0-------7--|--4---4--0-0--0--0--|--4---4--4-5-----7----|
Staccato            .                                          .   

[Verse]

Guitar 1 (Slight Distortion) "Let's burn a hole..."
                                                                                      Play 2xs
D|------------------------|------------------------|------------------------|--------------------------|
A|------------------------|------------------------|------------------------|--------------------------|
F|------------------------|------------------------|------------------------|--------------------------|
C|------------------------|------------------------|------------------------|--------------------------|
G|------------------------|------------------------|------------------------|--------------------------|
D|--9--9-9-9--9--9-9-9-9--|--5--5-5-5--5--5-5-5-5--|--0--0-0-0--0--0-0-0-0--|--0--0-0-0--0--0-0-0-0----|

"Where the only thing that's real..."

D|------------------------|--------------------------|
A|------------------------|--------------------------|
F|------------------------|--------------------------|
C|------------------------|--------------------------| 
G|------------------------|--------------------------|
D|--2--2-2-2--2--2-2-2-2--|--5--5-5-5--5--5-5-5-5----|

"Is visions we had from ten years ago..."

Guitar 1 (Slight Distortion) 
                                                                                      Play 2xs
D|------------------------|------------------------|------------------------|--------------------------|
A|------------------------|------------------------|------------------------|--------------------------|
F|------------------------|------------------------|------------------------|--------------------------|
C|------------------------|------------------------|------------------------|--------------------------|
G|------------------------|------------------------|------------------------|--------------------------|
D|--9--9-9-9--9--9-9-9-9--|--5--5-5-5--5--5-5-5-5--|--0--0-0-0--0--0-0-0-0--|--0--0-0-0--0--0-0-0-0----|


Guitar 2 (Clean) *The picking for the open notes varies. Let notes ring.
                                                                                         Play 2xs
D|---------0-0-0--------0-0-0--|---------0-0-0---------|-------0-0-0------0----|-------0-0-0------0-0-0----|
A|---------0-0-0--------0-0-0--|---------0-0-0---------|-------0-0-0------0----|-------0-0-0------0-0-0----|
F|---9---9--------9---9--------|---9---9--------9\4/6--|-----------------------|---------------------------|
C|--11--11-------11--11--------|--11--11-------11\6/7--|--6--6-------6--6---7--|--6--6-------4--4----------|
G|-----------------------------|-----------------------|--7--7-------7--7---9--|--7--7-------6--6----------|
D|-----------------------------|-----------------------|-----------------------|---------------------------|

"With streets and East Coast lines, we kept this scene..."

Guitar 1 

D|------------------------|------------------------|--------------------------|
A|------------------------|------------------------|--------------------------|
F|------------------------|------------------------|--------------------------|
C|------------------------|------------------------|--------------------------|
G|------------------------|------------------------|--------------------------|
D|--2--2-2-2--2--2-2-2-2--|--5--5-5-5--5--5-5-5-5--|--2--2-2-2--2--2-2-2-2----|

Guitar 2

D|-------0-0-0------0-0-0--|-------0-0-0------0-0-0--|---------0-0-0--------0-0-0----|
A|-------0-0-0------0-0-0--|-------0-0-0------0-0-0--|---------0-0-0--------0-0-0----|
F|--8--8-------8--8--------|--9--9-------9--9--------|--11--11-------11--11----------|
C|--x--x-------x--x--------|--x--x-------x--x--------|---x---x--------x---x----------|
G|--6--6-------6--6--------|--7--7-------7--7--------|---9---9--------9---9----------|
D|-------------------------|-------------------------|-------------------------------|

"Alive..."

Guitar 1 (Distortion)

D|----------------------|----------------------------|
A|----------------------|----------------------------|
F|----------------------|----------------------------|
C|----------------------|----------------------------|
G|--7--7-7-7--7--7-7-7--|--7--7-7--------------------|
D|--5--5-5-5--5--5-5-5--|--5--5-5-7-7-5-5-5-5-5-5----|
                             Harm|---------------|
                               PM|---|

Guitar 2 (Distortion)

D|------------------------------|-------------------------------|
A|------------------------------|-------------------------------|
F|--13--13-13-13--13--13-13-13--|--13--13-13--------------------|
C|---x---x--x--x---x---x--x--x--|---x---x--x--------------------|
G|--11--11-11-11--11--11-11-11--|--11--11-11--------------------|
D|------------------------------|------------7-7-5-5-5-5-5-5----|
                                        Harm|---------------|
                                          PM|---|
[Chorus]

"Here I am..."

Guitars 1
                                                                                        Play 2xs
D|-------------------------|-------------------------|-------------------------|---------------------------|
A|-------------------------|-------------------------|-------------------------|---------------------------|
F|-------------------------|-------------------------|-------------------------|---------------------------|
C|--9--9-9-9-9-9--9-9-9-9--|--9--9-9-9-9-9--9-9-9-9--|--6--6-6-6-6-6--6-6-6-6--|---------------------------|
G|--7--7-7-7-7-7--7-7-7-7--|--7--7-7-7-7-7--7-7-7-7--|--4--4-4-4-4-4--4-4-4-4--|--7--7-7-7-7-7--7-7-7-7----|
D|--0--0-0-0-0-0--0-0-0-0--|--0--0-0-0-0-0--0-0-0-0--|-------------------------|--5--5-5-5-5-5--5-5-5-5----|

Guitar 2

D|---------------------------|-----------------------------|
A|--9p0h9p0h9p0-7p0h7p0h7p0--|--4p0h4p0h4p0-5p0h5p0h5p0----|
F|---------------------------|-----------------------------| Play 4xs
C|---------------------------|-----------------------------|
G|---------------------------|-----------------------------|
D|---------------------------|-----------------------------|

Guitars 1 and 2

D|-------------------------|---------------------------|
A|-------------------------|---------------------------|
F|-------------------------|---------------------------|
C|-------------------------|---------------------------|
G|--4--4-4-4-4-4--4-4-4-4--|--7--7-7-7-7-7--7-7-7-7----|
D|--2--2-2-2-2-2--2-2-2-2--|--5--5-5-5-5-5--5-5-5-5----|

[Verse]

"Don't listen too close, their words are like guns..."

Guitar 1 (Slight Distortion)
                                                                                      Play 4xs
D|------------------------|------------------------|------------------------|--------------------------|
A|------------------------|------------------------|------------------------|--------------------------|
F|------------------------|------------------------|------------------------|--------------------------|
C|------------------------|------------------------|------------------------|--------------------------| 
G|------------------------|------------------------|------------------------|--------------------------|
D|--9--9-9-9--9--9-9-9-9--|--5--5-5-5--5--5-5-5-5--|--0--0-0-0--0--0-0-0-0--|--0--0-0-0--0--0-0-0-0----|

Guitar 2 (Clean) *The picking for the open notes varies. Let notes ring.      
                                                                                          Play 4xs 
D|---------0-0-0--------0-0-0--|---------0-0-0---------|-------0-0-0------0----|-------0-0-0------0-0-0----|
A|---------0-0-0--------0-0-0--|---------0-0-0---------|-------0-0-0------0----|-------0-0-0------0-0-0----|
F|---9---9--------9---9--------|---9---9--------9\4/6--|-----------------------|---------------------------| 
C|--11--11-------11--11--------|--11--11-------11\6/7--|--6--6-------6--6---7--|--6--6-------4--4----------|
G|-----------------------------|-----------------------|--7--7-------7--7---9--|--7--7-------6--6----------|
D|-----------------------------|-----------------------|-----------------------|---------------------------|

Acoustic Guitar

D|--0-----------------|--0-----------------|--0--0-0-0-0-0--0-0-0----|--0--0-0-0-0-0--0-0-0-0----|
A|--0-----------------|--0-----------------|--0--0-0-0-0-0--0-0-0----|--0--0-0-0-0-0--0-0-0-0----|
F|--4-----------------|--2-----------------|--1--1-1-1-1-1--1-1-1-2--|--1--1-1-1-1-x--x-x-x-x----|
C|--2-----------------|--2-----------------|--2--2-2-2-2-2--2-2-2-2--|--2--2-2-2-2-4--4-4-4-4----|
G|--4-----------------|--0-----------------|--2--2-2-2-2-2--2-2-2-2--|--2--2-2-2-2-2--2-2-2-2----|
D|--------------------|--------------------|--0--0-0-0-0-0--0-0-0----|--0--0-0-0-0-0--0-0-0-0----|

"We'll kiss them all goodbye..."

Guitar 1

D|------------------------|----------------------|----------------------------|
A|------------------------|----------------------|----------------------------|
F|------------------------|----------------------|----------------------------|
C|------------------------|----------------------|----------------------------| 
G|------------------------|--7--7-7-7--7--7-7-7--|--7--7-7--------------------|
D|--2--2-2-2--2--2-2-2-2--|--5--5-5-5--5--5-5-5--|--5--5-5-7-7-5-5-5-5-5-5----|
                             *Distortion              Harm|---------------|
                                                        PM|---|
Guitar 2

D|-------0-0-0------0-0-0--|----------------------|----------------------------|
A|-------0-0-0------0-0-0--|----------------------|----------------------------|
F|--8--8-------8--8--------|----------------------|----------------------------|
C|--x--x-------x--x--------|----------------------|----------------------------|
G|--6--6-------6--6--------|--7--7-7-7--7--7-7-7--|--7--7-7--------------------|
D|-------------------------|--5--5-5-5--5--5-5-5--|--5--5-5-7-7-5-5-5-5-5-5----|
                              *Distortion              Harm|---------------|
                                                         PM|---|

[Chorus]

"Here I am..."

Guitar 1
                                                                                         Play 4xs
D|-------------------------|-------------------------|-------------------------|---------------------------|
A|-------------------------|-------------------------|-------------------------|---------------------------|
F|-------------------------|-------------------------|-------------------------|---------------------------|
C|--9--9-9-9-9-9--9-9-9-9--|--9--9-9-9-9-9--9-9-9-9--|--6--6-6-6-6-6--6-6-6-6--|---------------------------|
G|--7--7-7-7-7-7--7-7-7-7--|--7--7-7-7-7-7--7-7-7-7--|--4--4-4-4-4-4--4-4-4-4--|--7--7-7-7-7-7--7-7-7-7----|
D|--0--0-0-0-0-0--0-0-0-0--|--0--0-0-0-0-0--0-0-0-0--|-------------------------|--5--5-5-5-5-5--5-5-5-5----|

Guitar 2 (Distortion)

D|---------------------------|-----------------------------|
A|--9p0h9p0h9p0-7p0h7p0h7p0--|--4p0h4p0h4p0-5p0h5p0h5p0----|
F|---------------------------|-----------------------------| Play 8xs
C|---------------------------|-----------------------------|
G|---------------------------|-----------------------------|
D|---------------------------|-----------------------------|

[Bridge]

Guitars 1 and 2 (Guitar 2 plays higher octave notes)

D|--------------------|--------------------|--------------------|--------------------------|
A|--------------------|--------------------|--------------------|--------------------------|
F|--------------------|--------------------|--------------------|-----------8h9p8----------|
C|--6---6--6-6--6--6--|--6---6--6-6--6--6--|--------------------|--6---6--6-------9p7h9----| 
G|--7---7--7-7--7--7--|--7---7--7-7--7--7--|--6---6--6-6--6--6--|--4---4--4-6h7p6----------|  
D|--0---0--0-0--0--0--|--0---0--0-0--0--0--|--4---4--4-4--4--4--|--4---4--4-------7p5h7----| 
Staccato     .  .  .              .  .  .                                          

Guitar 1
                                                                              
D|--------------------|--------------------|--------------------|----------------------|
A|--------------------|--------------------|--------------------|----------------------|
F|--------------------|--------------------|--------------------|----------------------|
C|--6---6--6-6--6--6--|--6---6--6-6--6--6--|--------------------|--6---6--6------------|
G|--7---7--7-7--7--7--|--7---7--7-7--7--7--|--6---6--6-6--6--6--|--4---4--4-4--4--4----|
D|--0---0--0-0--0--0--|--0---0--0-0--0--0--|--4---4--4-4--4--4--|--4---4--4-2--2--2----|
Staccato     .  .  .              .  .  .   

Guitar 2

D|--------------------|--------------------|--------------------|----------------------|
A|-----------9--------|----------12--------|--------------------|----------------------|
F|----------11b~------|----------14b~------|--------------------|----------------------|
C|--------------------|--------------------|--------------------|--6---6--6------------|
G|--------------------|--------------------|--6---6--6-6--6--6--|--4---4--4-4--4--4----|
D|--------------------|--------------------|--4---4--4-4--4--4--|--4---4--4-2--2--2----|

Guitar 1 and 2 (Guitar 2 plays the higher octaves)

D|--------------------|--------------------|--------------------|--------------------------|
A|--------------------|--------------------|--------------------|--------------------------|
F|--------------------|--------------------|--------------------|-----------8h9p8----------|
C|--6---6--6-6--6--7--|--6---6--6-6--6--7--|--------------------|--6---6--6-------9p7h9----|
G|--7---7--7-7--7--7--|--7---7--7-7--7--7--|--6---6--6-6--6--6--|--4---4--4-6h7p6----------|
D|--0---0--0-0--0--0--|--0---0--0-0--0--0--|--4---4--4-4--4--4--|--4---4--4-------7p5h7----|

D|--------------------|--------------------|--------------------|----------------------|
A|--------------------|--------------------|--------------------|----------------------|
F|--------------------|--------------------|--------------------|----------------------|
C|--6---6--6-6--6--7--|--6---6--6-6--6--7--|--------------------|--6---6--6------------|
G|--7---7--7-7--7--7--|--7---7--7-7--7--7--|--6---6--6-6--6--6--|--4---4--4-4--4--4----|
D|--0---0--0-0--0--0--|--0---0--0-0--0--0--|--4---4--4-4--4--4--|--4---4--4-2--2--2----|

[Verse]

Acoustic Guitar 

"Lets take what hurts..."        Repeat 2xs

D|--0-----------------|--0-----------------|--0--0-0-0-0-0--0-0-0----|--0--0-0-0-0-0--0-0-0-0----|
A|--0-----------------|--0-----------------|--0--0-0-0-0-0--0-0-0----|--0--0-0-0-0-0--0-0-0-0----|
F|--4-----------------|--2-----------------|--1--1-1-1-1-1--1-1-1-2--|--1--1-1-1-1-1--1-1-1-1----|
C|--2--(2x Measures)--|--2--(2x Measures)--|--2--2-2-2-2-2--2-2-2-2--|--2--2-2-2-2-2--2-2-2-2----|
G|--4-----------------|--0-----------------|--2--2-2-2-2-2--2-2-2-2--|--2--2-2-2-2-2--2-2-2-2----|
D|--------------------|--------------------|--0--0-0-0-0-0--0-0-0----|--0--0-0-0-0-0--0-0-0-0----|

Guitars 1 and 2

"When our ink runs out, we'll burn into the..."

D|-------------------------|-------------------------|---------------------------|
A|-------------------------|-------------------------|---------------------------|
F|-------------------------|-------------------------|---------------------------|
C|-------------------------|-------------------------|---------------------------|
G|--4--4-4-4-4-4--4-4-4-4--|--7--7-7-7-7-7--7-7-7-7--|--4--4-4-4-4-4--4-4-4-4----|
D|--2--2-2-2-2-2--2-2-2-2--|--5--5-5-5-5-5--5-5-5-5--|--2--2-2-2-2-2--2-2-2-2----|

"ground..."

Guitar 1 and 2 (Distortion)

D|----------------------|----------------------------|
A|----------------------|----------------------------|
F|----------------------|----------------------------|
C|----------------------|----------------------------|
G|--7--7-7-7--7--7-7-7--|--7--7-7--------------------|
D|--5--5-5-5--5--5-5-5--|--5--5-5-7-7-5-5-5-5-5-5----|
                          Harm|---------------|
                            PM|---|

[Chorus]

"Here I am..."

Guitar 1                                                                                 Play 4xs

D|-------------------------|-------------------------|-------------------------|---------------------------|
A|-------------------------|-------------------------|-------------------------|---------------------------|
F|-------------------------|-------------------------|-------------------------|---------------------------|
C|--9--9-9-9-9-9--9-9-9-9--|--9--9-9-9-9-9--9-9-9-9--|--6--6-6-6-6-6--6-6-6-6--|---------------------------|
G|--7--7-7-7-7-7--7-7-7-7--|--7--7-7-7-7-7--7-7-7-7--|--4--4-4-4-4-4--4-4-4-4--|--7--7-7-7-7-7--7-7-7-7----|
D|--0--0-0-0-0-0--0-0-0-0--|--0--0-0-0-0-0--0-0-0-0--|-------------------------|--5--5-5-5-5-5--5-5-5-5----|
                                                                                         
Guitar 2

D|---------------------------|------------------------------|
A|--9p0h9p0h9p0-7p0h7p0h7p0--|--4p0h4p0h4p0--5p0h5p0h5p0----|
F|---------------------------|------------------------------| Play 8xs
C|---------------------------|------------------------------|
G|---------------------------|------------------------------|
D|---------------------------|------------------------------|

[Outro]

Guitars 1 and 2

D|---------------------|--------------------|--------------------|--------------------|----------------------|
A|---------------------|--------------------|--------------------|--------------------|----------------------|
F|-----------8--8--8~--|-----------8--9-----|--------------------|--------------------|-----------8--8--8\---|
C|--6---6--6-x--x--x---|--6---6--6-x--x-----|--------------------|--6---6--6----------|--6---6--6-x--x--x----|
G|--7---7--7-6--6--6~--|--7---7--7-6--7-----|--6---6--0-2--2--2--|--4---4--4---/6-----|--7---7--7-6--6--6\---|
D|--0---0--0-----------|--0---0--0-------7--|--4---4--0-0--0--0--|--4---4--4-5-----7--|--0---0--0------------|
Staccato     .                                          .                                         . 


************************************

| x   Dead note
| h   Hammer-on
| p   Pull-off
| b   Bend
| /   Slide up
| \   Slide down
| ~   Vibrato
| PM  Palm mute

************************************
 
 
Yellowcard - Paper Walls :: indexed at Ultimate Guitar.
Paper Walls tabs @ 911Tabs

About the artist behind Paper Walls:

Yellowcard is an alternative rock multi-platinum selling band from Jacksonville, Florida. Their music features a rare contribution to the genre, incorporating the use of a violin.

The band is not currently active and is on a self-described "indefinite hiatus."

Indexed at Wikipedia.

Show us your talent, perform Paper Walls!

Here you can post a video or audio performance. Tell me more ...
Where can we find your performance? Tell me more ...
Your comment:
Please, log in to post your performance.