Artists by letter: A B C D E F G H I J K L M N O P Q R S T U V W X Y Z 0-9

 
Wenn Du Tanzt
[Intro]
Dm Am G G (x6)

Bassline (without Capo, slide up, slide down, hammer on, pull off)
G|--------------------------------------------------------------------------------|
D|------------0---0-----------------0---------0---0-------------------------------|
A|----------1-------1-3---3-1-3---3---------1-------1-3----3-/-5-\-3-p1-h3-p1-----|
E|----3---3---------------------------3---3-----------------------------------p3--|

Bassline (with Capo 5fth Fret, slide, hammer on, pull off)
G|------------2---2---0---0---0---0-2---------2---2---0----0-h2-p0----------------|
D|----0---0-3-------3-------3---------0---0-3-------3--------------h3-/-5-\-3-p0--|
A|--------------------------------------------------------------------------------|
E|--------------------------------------------------------------------------------|

little Melody (without Capo, during Intro, Verse)
E|----10-10---10-10-10---10-10-10-10---10------10-10---10-10-10---10-10-10-10------|
B|----11-11---10-10-10---8--8--8--8----8-------11-11---10-10-10---8--8--8--8-------|
G|---------------------------------------------------------------------------------|
D|---------------------------------------------------------------------------------|
A|---------------------------------------------------------------------------------|
E|---------------------------------------------------------------------------------|

little Melody (with Capo, during Intro, Verse)
E|----5-5---5-5-5---5-5-5-5---5------5-5---5-5-5---5-5-5-5-------------------------|
B|----6-6---5-5-5---3-3-3-3---3------6-6---5-5-5---3-3-3-3-------------------------|
G|---------------------------------------------------------------------------------|
D|---------------------------------------------------------------------------------|
A|---------------------------------------------------------------------------------|
E|---------------------------------------------------------------------------------|

[Verse 1]
Dm       Am       G
A Latte: a slowly hand-brewed
           Dm
flat white Cofffee
Dm          Am             G
ist einfach Kaffee wenn du tanzt
Dm       Am             
  Fiese Heuschrecken
G                  Dm
reudige Immobilienhaie
      Am            G   
alles Tiere wenn du tanzt
Dm     Am          G
Lutherstadt, Wittenberg
                   Dm
Cloppenburg, Hallersleben
      Am                G
Alles Kreuzberg wenn du tanzt
Dm     Am          G
Linkin Park, Timmy Bendzko
                     Dm
Robin Schulz, Revolverheld
      Am            G
alles Kunst wenn du tanzt

[Pre-Chorus]
F
Schließt die Schulen dieser Stadt
F
weil es keinen Sinn mehr hat
G
noch ein Weltbild zu vermitteln
G
das schon durch das kleinste Schütteln
F
deines linken Schulterblatts
F
einfach so zusammenkracht
G
und nur Schutt und Asche ist
G
wenn du dann am Tanzen bist
E 
Denn dass,

[Chorus 1]
Am
diese Welt
G                    F
nicht zusammenfällt, liegt nur
F        G           Am
allein an deinen Beinen
Am           
Dass diese Welt
G                    F
nicht zusammenfällt, liegt nur
F         G         Am
allein an deinen Beinen
Am
Dass diese Welt
G                    F
nicht zusammenfällt, liegt nur
F      G           Am
allein an deinen Beinen
Am
Dass diese Welt
G                    F
nicht zusammenfällt, liegt nur
N.C.                      Dm
an deinen Beinen wenn du tanzt

[Instrumental]
   Am G G
Dm Am G G
Dm Am G G
Dm Am G G

[Verse 2]
Dm   Am      
Ackermann, Merkel
G                      Dm
Jan Fleischhauer, Voldemort
      Am               G
nette MensGhen wenn du tanzt
Dm      Am          G
Schicker Mac, Tower fett
                 Dm
Power Doppel Oktacore
      Am              G
Rechenschieber wenn du tanzt
Dm     Am      G
Doppel 6, Tiki-Taka
                       Dm
gegen Pressing, falsche 9
       Am          G
hochhinein wenn du tanzt
Dm     Am         G
Dumme Ex-freunde, Sex-buddies
             Dm
Herzschmerz, Drama
    Am            G
alles Liebe wenn du tanzt

[Pre-Chorus 2]
F
Schließt die Schulen dieser Stadt
F
weil es keinen Sinn mehr hat
G
noch ein Weltbild zu vermitteln
G
das schon durch das kleinste Schütteln
F
deines linken Schulterblatts
F
einfach so zusammenkracht
G
und nur Schutt und Asche ist
G
wenn du dann am Tanzen bist
E 
Denn dass,

[Chorus 2]
Am
diese Welt
G                    F
nicht zusammenfällt, liegt nur
F       G           Am
allein an deinen Beinen
Am           
Dass diese Welt
G                    F
nicht zusammenfällt, liegt nur
F         G         Am
allein an deinen Beinen
Am
Dass diese Welt
G                    F
nicht zusammenfällt, liegt nur
F        G           Am
allein an deinen Beinen
Am
Dass diese Welt
G                    F
nicht zusammenfällt, liegt nur
N.C.                      Am
an deinen Beinen wenn du tanzt

[Outro]
Dm Am G G (x4)
 
 
Von Wegen Lisbeth - Wenn Du Tanzt :: indexed at Ultimate Guitar.
Wenn Du Tanzt tabs @ 911Tabs
People who played Von Wegen Lisbeth - Wenn Du Tanzt also played these songs by Von Wegen Lisbeth:
Bitch Chords, Sushi Chords, Meine Kneipe Chords, Wenn Du Tanzt Chords, Lisa, Der Untergang Des Abendlandes Chords

Quick tip, so you can enjoy Wenn Du Tanzt even more:

You might want to transpose the song if it is too high or too low for you to sing. Just click the desired option while playing a song and all the chords will automatically be transponded into a new key.

Show us your talent, perform Wenn Du Tanzt!

Here you can post a video or audio performance. Tell me more ...
Where can we find your performance? Tell me more ...
Your comment:
Please, log in to post your performance.