Artists by letter: A B C D E F G H I J K L M N O P Q R S T U V W X Y Z 0-9

 
Wasted Tab
-- WASTED by Angus & Julia Stone --
Tabbed by scurt

From their latest album "A Book Like This".
Please leave any comments or corrections. Thanks.

Standard tuning EADGBe.

x = Slap strings
/ = Slide Up
 = Slide Down

Gsus2 = 3-0-0-0-3-3
C     = 0-3-2-0-1-0

    Gsus2
e|----3--x--------------3--x-------------|
B|----3--x--3---3---3---3--x--3---3---3--|
G|-------x--0---0---0------x--0---0---0--|
D|-------x-----------------x-------------|
A|-------x-----------------x-------------|
E|--3----x----3---2---0----x----0---2----|

    Guitar Two Intro
e|----------------|--------------|---------------|--------------|
B|----------------|--------------|---------------|--------------|
G|----------------|--------------|---------------|--------------|
D|--5h7-9-5-12--5-|-5h7-9--12-5--|-5h7-9-5-12--5-|-9-7-/-5-/-4--|
A|----------------|--------------|---------------|--------------|
E|----------------|--------------|---------------|--------------|

[INTRO]
(Gsus2)(Gsus2)(Gsus2)(Gsus2)
Guitar two plays over first guitar twice


[VERSE]
(Gsus2)               
     I don't know just what I'll do
(Gsus2)
     Every time you walk into the room
(Gsus2)
     Oh my head is spinning 'round
(Gsus2)
     And I can't see clearly right now


[CHORUS]
    C
e|-------x---------x---------x-------------|
B|----1--x------1--x------1--x------1---1--|
G|----0--x------0--x------0--x------0---0--|
D|--2----x--0h2----x--0h2----x--0h2--------|
A|--3----x--0h3----x--0h3----x--0h3---2----|
E|-------x---------x---------x-------------|

    C* (strum)
e|--------|
B|--1-----|
G|--0-----|
D|--2-----|
A|--3-----|
E|--------|

    (C)
 I'm wasted
       (C)
 I'm so wasted on you
    (C)
 I'm wasted
        (C*)
 I'm so wasted on you


[VERSE]
(Gsus2) 
     I don't know if I'll survive
(Gsus2) 
     In this magical land behind your eyes
(Gsus2) 
     And there's all these funny little men
(Gsus2) 
     There all asking me to dance and sing


[Repeat CHORUS]


[SOLO] Played over guitar playing Gsus2
e|---------------------------|
B|---------------------------|
G|------7-----------------7--|
D|--9h7---9h7---9h7---9h7----|
A|---------------------------|
E|---------------------------|

e|----------------------------------------------------------------------------------|
B|----------------------------------------------------------------------------------|
G|--9p7-9p7-9p7-9p7--9/11-11/12-12/14-1412-1211-119-97-7---7-7-7/9-11-12-12/14--|
D|----------------------------------------------------------------------------------|
A|----------------------------------------------------------------------------------|
E|----------------------------------------------------------------------------------|

e|--------------------------------------------|
B|------12h13-13h15-15p13-13p12-12p10-10p8-8--|
G|--12----------------------------------------|
D|--------------------------------------------|
A|--------------------------------------------|
E|--------------------------------------------|

e|----0-0--0---------0-0-0-----0-----0-0------0--0------0---|
B|--5-5-5--8p7-------8-8-8p7---7h8---8-8h10---10-10h12--12--|
G|----------------------------------------------------------|
D|----------------------------------------------------------|
A|----------------------------------------------------------|
E|----------------------------------------------------------|

e|---------------------------------------|
B|---------------------12-13-15---15/17--|
G|------------11-12-14-------------------|
D|--7-9-12-14----------------------------|
A|---------------------------------------|
E|---------------------------------------|

This part is played very softly
e|------------------|
B|--1513-1312-12--|
G|------------------|
D|------------------|
A|------------------|
E|------------------|


[VERSE]
(Gsus2) 
     Red and yellow, pink and green
(Gsus2) 
     Purple and orange and blue
        (Gsus2) 
     Oh, all of the colours I see my love
(Gsus2) 
     Every time I see you


[OUTRO]
    (C)
 I'm wasted
       (C)
 I'm so wasted on you
    (C)
 I'm wasted
        (C*)
 I'm so wasted on you
    (C)
 I'm wasted
       (C)
 I'm so wasted on you
    (C)
 I'm wasted
        (C*)
 I'm so wasted on you



 
 
Angus And Julia Stone - Wasted Tab :: indexed at Ultimate Guitar.
Wasted tabs @ 911Tabs

Quick tip, so you can enjoy Wasted Tab even more:

After the registration (which takes just 10 seconds, remember?) you will be able to use your profile - your very own piece of YourChords.com.

Show us your talent, perform Wasted Tab!

Here you can post a video or audio performance. Tell me more ...
Where can we find your performance? Tell me more ...
Your comment:
Please, log in to post your performance.