Artists by letter: A B C D E F G H I J K L M N O P Q R S T U V W X Y Z 0-9

 
Bad To The Bone Tab
IM NOT TAKING CREDIT FOR THIS TAB...I FOUND IT ONLINE AND IT BEATS ANY OF THE OTHER TABS ON HERE!!!!
song: BAD TO THE BONE

artist: Zz Top

tuning-G-D-G-B-D


|-------------------|---------0---------------0--|
|--0--0--5--0--3-0--|--0------0--0--5--0--3-0-0--|
|--0--0--5--0--3-0--|--0------0--0--5--0--3-0-0--|
|--0--0--5--0--3-0--|--0------0--0--5--0--3-0-0--|
|-------------------|----------------------------|
|-------------------|----------------------------|

|--0--------------------------0------15----0------------------------|
|--0------0-----5--0--3/12----0------15----0--------5---0---3/------|
|--0------0--0--5--0--3/12----0-------------0----0---5---0---3/-----|
|--0------0--0--5--0--3/12----0------------------0---5---0---3/-----|
|-------------------------------------------------------------------|
|-------------------------------------------------------------------|

|-0----------------------------------12------------0------------0---|
|-0---11/12------5--0--3-0---11/12----12---------0--5--0--3-0-0-----|
|-0---11/12---0--5--0--3-0---11/12-------12-12--0--5--0--3-0-0------|
|-----11/12---0--5--0--3-0------------------12--0--5--0--3-0-0------|
|-------------------------------------------------------------------|
|-------------------------------------------------------------------|

|-----12----0-----------|
|-11/12----0--5--0--3---|
|-11/12----0--5--0--3---|
|-11/12----0--5--0--3---|
|-----------------------|
|-----------------------|

|--0----|------------------------------------|
|--0----|--0--5--0--3--0----------0--5--0--3-|
|--0----|--0--5--0--3--0----------0--5--0--3-|
|--0----|--0--5--0--3--0----------0--5--0--3-|
|-------|------------------------------------|
|-------|------------------------------------|

|----------------------------------0-----------------12--|
|--0---------------0--5--0--3/12---0-------0--5--0--12---|
|--0---------------0--5--0--3/12---0-------0--5--0---12--|
|--0---------------0--5--0--3/12---0-------0--5--0-------|
|--------------------------------------------------------|
|--------------------------------------------------------|

solo

|-0---------12---------------------------------------------------------------|
|-0---------12---0------0--5--0---3--0-----------------------0-----0---------|
|-0---------------0------0--5--0---3--0---11/12-------12-----0--3--0---------|
|-0---------------0------0--5--0---3--0---11/12-------12-----0--3--0--3/4----|
|----------------------------------------------------------------------------|
|----------------------------------------------------------------------------|

|-----------12------------------------------/3--/3--/3--0-----------------|
|--------------12-------------------------0-/3--/3--/3--0--0--------------|
|--0--11/12---------12--12--0------0--/3---0-/3--/3--/3--0--0-------0--3--|
|--0--11/12-------------12--0--/3--0--/3---0-------------------/3---0-----|
|-------------------------------------------------------------------------|
|-------------------------------------------------------------------------|

|-------------------------------0-----------------------------------------|
|0--------------0---0-----------0-----------------------------------------|
|0--2/3-/3--/3--0---0-3---0/3---0---11//12-12--12-12-12-12-12-12-12-12-12-|
|0--2/3-/3--/3--0---0-3---0/3---0---11//12-12--12-12-12-12-12-12-12-12-12-|
|-------------------------------------------------------------------------|
|-------------------------------------------------------------------------|

|----12-----------------------------------12----------------------------12---|
|-12----12-----------------------------12----12---------------------12--12---|
|---------12-12-12-12-12-12-12-12-12----------12-12-12--12-12-12-12----------|
|---------12-12-12-12-12-12-12-12-12----------12-12-12--12-12-12-12----------|
|---------12-12-12----------------------------12-12-12--12-12-12-------------|
|----------------------------------------------------------------------------|

|----------------------------12--------------------------------------------|
|------12-12---------------12--12------------------------------------------|
|-12-12--12-12-12-12-12-12-12------12-12--12-12-12-12-12-12-12-12-12-12-12-|
|--------------12-12-12-12---------12-12--12-12-12-12-12-12-12-12-12-12-12-|
|---------------12-12-12---------------------------------------------------|
|--------------------------------------------------------------------------|

|-0---0--------0--0----------/12--0-------0-------------|
|-0---0--------0--0----0-----/12--0-------0--5--0----3--|
|-0---0----/4--0--0----0--0--/12--0-------0--5--0----3--|
|-0---0--------0--0----0--0-------0-------0--5--0----3--|end of solo
|-------------------------------------------------------|
|-------------------------------------------------------|


|--0----------------------------1--2--3---3---|
|--0----------------------------1--2--3---3---|
|--0--0--3--3-2---2-1----1--0---------0---0---|
|--0------------------------------------------|
|---------------------------------------------|
|---------------------------------------------|

 
 
Zz Top - Bad To The Bone Tab :: indexed at Ultimate Guitar.
Bad To The Bone tabs @ 911Tabs

Quick tip, so you can enjoy Bad To The Bone Tab even more:

Try out the AutoScroller option ... It scrolls the page for you, so you can totally focus on nailing that solo. You can choose among different speeds using your mouse or your keyboard (keys 0, 1, 2 and 3).

Show us your talent, perform Bad To The Bone Tab!

Here you can post a video or audio performance. Tell me more ...
Where can we find your performance? Tell me more ...
Your comment:
Please, log in to post your performance.